.

banners

Tabs fácil de... Reinando en su propio mundo. Legado de una tragedia I.



  Es una lástima que no se hagan mas operas rock en castellano, “legado de una tragedia” para mi gusto, está muy bien hecha y currada, nada que envidiar a otras, como Avantasia, etc, etc,
     Aquí is dejo otro fragmento en tablatura de la opera rock, en concreto este fragmento pertenece a la canción “reinando en su propio mundo”. Espero que la disfrutéis. Hasta pronto.





Reinando en su propio mundo. Legado de una tragedia I.



(1:17 guitarra rítmica)

---------------------------------------------------
2.-------------------------------------------------
3.-------------------------------------------------
4.-2-2---2-2-2-2---5-5---5-5-5-5-------------------
5.-0-0---0-0-0-0---3-3---3-3-3-3---3-3---3-3-3-3---
6.---------------------------------1-1---1-1-1-1---

1.-----------------
2.-----------------
3.-----------------
4.-----------------
5.-5-5---5-5-5-5---
6.-3-3---3-3-3-3---



1.-------------------------------------------------
2.-------------------------------------------------
3.-------------------------------------------------
4.-2-2---2-2-2-2---5-5---5-5-5-5-------------------
5.-0-0---0-0-0-0---3-3---3-3-3-3---3-3---3-3-3-3---
6.---------------------------------1-1---1-1-1-1---

1.-----------------
2.-----------------
3.-----------------
4.-----------------
5.-5-5---5-5-5-5---
6.-3-3---3-3-3-3---


(1:38)

1.---------------------------------------------
2.---------------------------------------------
3.---------------------------------------------
4.-5-------------------------------------------
5.-3---3---5---7-7-7-5-5-5-3-3-3-2-3---2---5---
6.-----1---3-----------------------1---0---3---

1.---------------------
2.---------------------
3.---------------------
4.---------------------
5.-5-5-5-3-3-3-7-7-7-5-
6.---------------------


1.---------------------------------------------------
3.---------------------------------------------------
4.-5-------------------------------------------------
5.-3---3---5---7-7-7-5-5-5-3-3-3-2-3---2---3---2---5-
6.-----1---3-----------------------1---0---1---0---3-

1.---------------------------------------------------
2.---------------------------------------------------
3.---------------------------------------------------
4.---------------------------------------------------
5.---5-5-5-3-3-3-7-7-7-5-----------------------------
6.---------------------------------------------------


Más tablaturas de...Legado de una tragedia.

No hay comentarios:

Publicar un comentario