.

banners

Tabs fácil de... Public enemy nº1. Megadeth.

 Ya he visto publicadas algunas versiones de este riff, pero es que me resulta demasiado bueno para dejar de "tabscribir "mi Tablatura fácil , por eso hay os la dejo "Public enemy nº1" de Megadeth en tablaturas fáciles para que comparéis. 
  Un saludo.
  Tabs Fácil.






Megadeth. Public enemy nº 1.

1.------------------
2.------------------
3.---------------2--    repetir cuatro
4.---3-5-3-2-3-2-0--         veces.    
5.------------------
6.------------------


1.-------------------------------------------
2.-------------------------------------------
3.-/7-5-7-5-7--------------------------------
4.-------------2-------------3-------------4-
5.-------------0-0-0-0-0-0-0-0-0-0-0-0-0-0-0-
6.-------------------------------------------

1.----------------------
2.----------------------
3.----------------------
4.---------------5------
5.-0-0-0-0-0-0-0-0------
6.----------------------.....

No hay comentarios:

Publicar un comentario en la entrada