.

banners

Tabs fácil de... Preludios nocturnos. Legado de una tragedia I.

    Otro momento en tablatura fácil de la primera entrega de "Legado de una Tragedia." 
    "Preludios nocturnos" se llama el tema con el que espero que espero que disfrutéis y paséis un buen rato.
  Un saludo.
  TabsFácil.





Legado de una tragedia. Preludios nocturnos

(Guit. Acústica)

1.------------------------------------------
2.------------------------------------------
3.--------------------------------8-9-11-13-
4.--------9-8-6-6-8-9-11-9-8-9-11-----------
5.-6-7-9------------------------------------
6.------------------------------------------

1.---------------------------------7-6------
2.--------4------------4--------/9-----5----
3.------4---4--------4---4---------------6-8
4.----6-------6----6-------6----------------
5.------------------------------------------
6.-4-------------4--------------------------

1.-----------------------------------------
2.----4-5-5-4-----------4------------------
3.-/6---------6/8---4-6-----------------6--
4.----------------------------------6-8----
5.----------------------------6-7-9--------
6.--------------------------9--------------

1.-----------------------7----7----7----7----
2.--------------------11---11---11---11---11-
3.-4(6)4-1-3-3-4-----------------------------
4.---------------4/6-------------------------
5.-------------------------------------------
6.-------------------------------------------

1.-7-----7---7---/7-7-6-6-4-4-2-----4-4-2----
2.---11---11---------------------2--------2--
3.-------------------------------------------
4.-------------------------------------------
5.-------------------------------------------
6.-------------------------------------------

1.------------------------------------
2.-4-5-7---2---4-2--------------------
3.------------------4-1-3-4-3-1---1---
4.------------------------------4-----
5.------------------------------------
6.------------------------------------

Todas estas notas son armónicos:

1.-------------------------------------------
2.-------8-9---12-12-11-11-------------------
3.----11---------------------13-12-----------
4.-12-------------------------------13-14-13-
5.-------------------------------------------
6.-------------------------------------------



1.----9-12-9-7--------7------
2.-12-----------9---9---9----
3.---------------------------
4.---------------------------
5.---------------------------
6.---------------------------

(guit. Eléctrica)


1.---------------------------------------------
2.-12(14)12-11-9-11-12-------------------------
3.---------------------------------------------
4.---------------------13-13(14)13-------16-18-
5.-----------------------------------/18-------
6.---------------------------------------------

1.-------------15-16-/16-14--------------19----18
2.----------16--------------16-14-16--21----21---
3.-15-16-18--------------------------------------
4.-----------------------------------------------
5.-----------------------------------------------
6.-----------------------------------------------

1.-18/19/18-16-16---22(24)---21-19-18-19-21------
2.-----------------------------------------------
3.-----------------------------------------------
4.-----------------------------------------------
5.-----------------------------------------------
6.-----------------------------------------------

1.-19-18-16-19-----------22(24)------------------
2.-------------16-17-16---------21-------19------
3.---------------------------------20-21----20---
4.-----------------------------------------------
5.-----------------------------------------------
6.-----------------------------------------------

1.----19-18------------
2.---------------------
3.-20------------------
4.---------------------
5.-----------------6---
6.-----------------4---

Más tablaturas de...

No hay comentarios:

Publicar un comentario