.

banners

Tabs fácil de... Pídeme la luna. Gregor Montesinos.


  No podía dejar pasar por alto, una vez descubierto este gran guitarrista, este tema, y no sólo por su calidad musical, melodía, técnica, etc., etc., Sino también por la bonita iniciativa y el mensaje que transmite el vídeo con el que nos lo presenta.
  Grande Gregor Montesinos como guitarrista y como persona, muy implicado con su tierra.
  Desde este humilde espacio, enhorabuena y mucha suerte!!.

  Más tablaturas de Gregor Montesinos:

- Sonata Simpática.


   Un saludo.
   TabsFácil.







 Allí de donde yo vengo. Gregor Montesinos.





   Érase una vez un pequeño gorrión 
muy alegre y travieso, juguetón y aventurero.
   Tenía muchísimos amigos pero adoraba especialmente a los más pequeños.
   Le gustaba mucho viajar y conocer
a gente de otros lugares y disfrutaba
organizando sorpresas donde todos lo pasaban
muy bien.
   El pequeño gorrión tenía tantas energías
 que nunca se cansaba y antes de que acabara
una aventura ya tenía otra preparada.
    Pídeme la luna y te la intentaré alcanzar...



1.-------------------------------------------------------
2.-------------------------------------------------------
3.-------------------------------------------------------
4.-----------------------7-7-7-7-7-7-7-7-----------------
5.-5-5-5-5-5-5-5-5-5-5---5-5-5-5-5-5-5-5---5-5-5-5-5-5-5-
6.-3-3-3-3-3-3-3-3-3-3---------------------3-3-3-3-3-3-3-

1.-------------------------------
2.-------------------------------
3.-------------------------------
4.-------------------------------
5.---5-5-5---7-7-7-7-7-7-7-7-7---
6.---3-3-3---5-5-5-5-5-5-5-5-5---

(1:23)
1.--------/10---------/10---14-------------/10--------
2.-7-8-10------7-8-10----------15---7-8-10-----7-8-10-
3.----------------------------------------------------
4.----------------------------------------------------
5.----------------------------------------------------
6.----------------------------------------------------

1.---------------------------------------------------
2.-8/10-8-7------------/10---------/10---14----------
3.----------9---7-8-10------7-8-10----------15---7-8-
4.---------------------------------------------------
5.---------------------------------------------------
6.---------------------------------------------------

1.----------------------------------------
2.---10-8(10)(8)-7---7-8-10---------------
3.-----------------7--------9---(11)(9)---
4.----------------------------------------
5.----------------------------------------
6.----------------------------------------

1.--------/10---------/10---14-------------/10--------
2.-7-8-10------7-8-10----------15---7-8-10-----7-8-10-
3.----------------------------------------------------
4.----------------------------------------------------
5.----------------------------------------------------
6.----------------------------------------------------

1.---------------------------------------------------
2.-8/10-8-7------------/10---------/10---14----------
3.----------9---7-8-10------7-8-10----------15---7-8-
4.---------------------------------------------------
5.---------------------------------------------------
6.---------------------------------------------------

1.----------------------------------------
2.---10-8(10)(8)-7---7-8-10---------------
3.-----------------7--------9---(11)(9)---
4.----------------------------------------
5.----------------------------------------
6.----------------------------------------

(1:56)
1.-6-6---5-5---3-3---5-5---------------6-6---5-5---3-3-
2.-----------------------7h5h7---/19-------------------
3.-----------------------------------------------------
4.-----------------------------------------------------
5.-----------------------------------------------------
6.-----------------------------------------------------

1.---5-5-----19h17---
2.-------7h5---------
3.-------------------
4.-------------------
5.-------------------
6.-------------------

(2:12)
1.----------7-7h9h7-----------5/7--------------7-7-9-
2.-----8-10---------10-8-8/10-----7-------8-10-------
3.-7-7--------------------------------7-7------------
4.---------------------------------------------------
5.---------------------------------------------------
6.---------------------------------------------------

1.---9(10)(9)-7-9-7-5---
2.----------------------
3.----------------------
4.----------------------
5.----------------------
6.---------------------. . .





No hay comentarios:

Publicar un comentario en la entrada