.

banners

Tabs fácil de... The moon is shining. Blackmore’s Night.


  Otro de esos guitarristas que han hecho escuela. Y a pesar de abandonar el estilo por el que más se le conocía, (ya lleva años con este proyecto) sigue haciendo muy buena música. 
  Comparto con vosotros parte del solo de este adelanto de lo que es su último disco, espero que lo disfrutéis como siempre lo hago yo.
  Ritchie Blackmore en tablaturas fáciles.
  Un saludo.
  TabsFácil.





The moon is shining(somewhere over the sea). Blackmore’s Night.



(1:56) solo.

1.---------------------------------------------|
2.---------------------------------------------|
3.-9-9(11)--12-11-9-11--5(7)(5)-4-4(6)-7-9-7-6-|
4.---------------------------------------------|
5.---------------------------------------------|
6.---------------------------------------------|



1.-----------------------2/7------------------------|
2.------------/7-8-7-5-7-----/15-14-12--14-15-14-12-|
3.-6(7)(6)h4----------------------------------------|
4.--------------------------------------------------|
5.--------------------------------------------------|
6.--------------------------------------------------|


1.-7-9-10--9-10-12--9(10)(9)-5--10-12-14--12-14-15-|
2.-------------------------------------------------|
3.-------------------------------------------------|
4.-------------------------------------------------|
5.-------------------------------------------------|
6.-------------------------------------------------|



1.-12-14-----------------------------------------|
2.--------/19-20-19-17-19-----------------------5
3.-------------------------17(19)(17)-16--4-6-7--|
4.-----------------------------------------------|
5.-----------------------------------------------|
6.-----------------------------------------------|


1.-------------------------------------------14-12
2.----------------7-------------------7--17--14---|
3.-6h7h6h4--6-7-9---7h9h7h9h7h6---7-9--------14---|
4.-------------------------------------------14---|
5.-------------------------------------------14---|
6.------------------------------------------------|


1.-h14h12-----------------------------------------|
2.--------15-14-15-14-15-14h15h14h12--------------|
3.------------------------------------11-14-14(16)|
4.------------------------------------------------|
5.------------------------------------------------|
6.------------------------------------------------|


1.------------------|
2.------------------|
3.---16-14----------|
4.---------16-15-16-|
5.------------------|
6.------------------| . . .

Más tablaturas de...Blackmore's Night.

No hay comentarios:

Publicar un comentario en la entrada