.

banners

Tabs fácil de... Last of our kind. The Darkness.

  Otra de esas bandas que no podía faltar en www.tabsfacil.es. The darkness posiblemente una de las mejores bandas de hard rock, del momento seguro, de la historia, Por qué no?
   Las tablaturas fáciles que os dejo hoy son del tema "Last of our kind" perteneciente a su último plástico del mismo nombre que el tema en cuestión.
  Espero que os guste.
  Un saludo.
 TabsFácil.





Last of our kind. The darkness.


   (0:40)
1.------------------------------------
2.---5-4-------4-5--------------------
3.-----------4------------------------
4.-------6-7---------2----6-4----8-6--
5.-------------------0----4-2----6-4--
6.------------------------------------

1.-----------------------

2.-----------------------
3.-----------------------
4.-----------------------
5.--6-7----7-7-7-7-7-7-7-
6.--4-5----5-5-5-5-5-5-5-...

  (0:53)

1.--------------------------------------
2.--------------------------------------
3.--------------------------------------
4.---6----2------------------6----2-----
5.---4----0----2----4--0h2-2-4----0---2-
6.-------------0----2-----------------0-

1.--------------

2.--------------
3.--------------
4.---------4--6-
5.--4--0h2-2--4-
6.--2-----------...

   (1:13)

1.------------------------------------------
2.----4-5---4-5-7(9)-7-5-4h5h4--------------
3.-/6-----6--------------------6-4----------
4.---------------------------------7-6-4----
5.---------------------------------------7-4
6.--------------------------------------...

No hay comentarios:

Publicar un comentario en la entrada