.

banners

Tabs fácil de... La ciudad del mal. Legado de una tragedia II.



tablaturas_faciles.


  El tema que se presentó como sencillo para anunciar la salida de la segunda parte de la obra, sonaba así de bien.
  Unos momentos en tablaturas fáciles para recordar la segunda parte, ahora que ya va quedando poquito para que volvamos a escuchar la tercera entrega.
  Un saludo.
  TabsFácil.



          

La ciudad del mal. Legado de una tragedia 2.




(piano)
1.-----------------------------------------------
2.--------10-8--------------8-6------------------
3.-7-9-10------10-9---5-7-9-----9-7---7-9-10-9-7-
4.-----------------------------------------------
5.-----------------------------------------------
6.-----------------------------------------------



1.---------------------
2.-------------------8-
3.---7-9-10-9-7----9---
4.--------------11-----
5.---------------------
6.---------------------

      

(0:57)
1.-----------------------------------------------
2.-----------------------------------------------
3.-----------------------------------------------
4.-7---6---5---4---3---3-3-------------3---5---2-
5.-5---4---3---2---1---1-1---5---5-5---1---3---0-
6.---------------------------3---3-3-------------



1.----------------------------------------------
2.--------10(11)(10)-8-------10(11)(10)-8-------
3.-7-9-10--------------5-7-9--------------10-10-
4.----------------------------------------------
5.----------------------------------------------
6.----------------------------------------------



1.-------------------------------
2.-------------------------9(10)-
3.---7-9-10---7-9-10---7-9-------
4.-------------------------------
5.-------------------------------
6.----------------------------. . .



(1:39)
1.-------------------------------------------
2.-------------------------------------------
3.-------------------------------------------
4.-7---3---3-2-------------------------7---3-
5.-5---1---1-0-5-----------------------5---1-
6.-------------3---3-5-5-5-5---5-5-5-5-------



(2:05) …”allí verás…”
1.--------------------------------------------
2.--------------------------------------------
3.--------------------------------------------
4.-3------------------------------------------
5.-1---3---3-3-3-3-3---3-3-3-3-3---3-3-3-3-3--
6.-----1--------------------------------------



1.-----------------------------------------------
2.-----------------------------------------------
3.-----------------------------------------------
4.-----------------------------------------------
5.-3-3-3-3-3---5-5-5-5-5---5-5-5-5-5---5-5-5-5-5-
6.-----------------------------------------------



1.-------------------------------------------------
2.-------------------------------------------------
3.-------------------------------------------------
4.-------------3-----------------------------------
5.-5-5-5-5-5---1---3---10-10-10---8-5-8---10-10-10-
6.-----------------1-------------------------------



                                   …”La ciudad del mal…
1.---------------------------------------------------
2.---------------------------------------------------
3.---------------------------------------------------
4.---------7-7-7---5-3-5---7-7-7---5-3-5-------7---7-
5.-8-5-8-----------------------------------3---5---5-
6.-----------------------------------------1---------



1.---------------------------------------------------
2.---------------------------------------------------
3.---------------------------------------------------
4.-3---5-------5---7---3---5-------------------------
5.-1---3---3---3---5---1---3---1-1-1-1-1-1-1-1-1-1-1-
6.---------1-----------------------------------------

…”celestial…
1.-------------------------------------------------
2.-------------------------------------------------
3.-------------------------------------------------
4.-------------------------------------------------
5.-1-1-1-1-1-1-1-1---5-5-5---5-5-5---5-5-5---5-5-5-
6.-------------------------5-------5-------5-------



1.-------------------------
2.-------------------------
3.-------------------------
4.-------------------------
5.-----5-5-5---5-5-5---5-5-
6.---5-------5-------5-----. . .



(4:10)
1.----------------------------------------------
2.--------------6-8-10-8-------8-10-11-11-------
3.---9-10---9-7----------9----------------10----
4.-------------------------10----------------12-
5.----------------------------------------------
6.----------------------------------------------



1.--------------------
2.--------------------
3.---10-12-12(14)(12)-
4.--------------------
5.--------------------

6.-----------------. . .

Más tablaturas de...Legado de una tragedia.

No hay comentarios:

Publicar un comentario