.

banners

Tabs fácil de... Insomnia. Kamelot.

  "Insomnia" un tema muy bien ejecutado y elaborado donde nos cuentan una historia de ciencia-ficción sobre un mundo apocalíptico donde el ser humano es controlado hasta en sus sueños.
  Os quiero dejar unos momentos en tablaturas fáciles del tema que espero que como siempre, os guste y lo disfrutéis.
    Un saludo.
   TabsFácil.





Insomnia. Kamelot.

   (1:09)
1.----------------------------------------
2.----------------------------------------
3.----------------------------------------
4.----------------------------------------
5.---4--4-4h5h4-4--4--4-4h5h4-4--4-4-4-5h4
6.----------------------------------------

1.----------------------------------------

2.----------------------------------------
3.----------------------------------------
4.----------------------------------------
5.---4--4-4h5h4-4--4--4-4h5h4-4--4-4-4-5h4
6.----------------------------------------

1.--------------------------------------

2.--------------------------------------
3.--------------------------------------
4.--------------------------------------
5.--4--4-4h5h4--6--6-6h7h6-6--6-6-6-7h6-
6.--------------------------------------

1.----------------------------------------

2.----------------------------------------
3.----------------------------------------
4.----------------------------------------
5.---4--4-4h5h4-4--4--4-4h5h4-4--4-4-4-5h4
6.----------------------------------------

1.----------------------------------------

2.----------------------------------------
3.----------------------------------------
4.----------------------------------------
5.---4--4-4h5h4-4--4--4-4h5h4-4--4-4-4-5h4
6.----------------------------------------

1.--------------------------------------

2.--------------------------------------
3.--------------------------------------
4.--------------------------------------
5.--4--4-4h5h4--6--6-6h7h6-6--6-6-6-7h6-
6.--------------------------------------


1.---------------------------------------
2.---------------------------------------
3.---------------------------------------
4.-----------------------------6---------
5.---5--5-5h6h5-5--5-5-5-6h5---4---7---6-
6.---------------------------------5---4-



1.-------------
2.-------------
3.-------------
4.---6---------
5.---4---4---6-
6.-------2---4-...

Más tablaturas de...Kamelot.

No hay comentarios:

Publicar un comentario en la entrada