.

banners

Tabs fácil de... In any tongue. David Gilmour.

  El último sencillo de David Gilmour y su trabajo en solitario "Rattle that lock" lleva por título "In any tongue" y os quiero dejar un momento en tablatura perteneciente al solo.
  Espero como siempre que os guste y disfrutéis.
  Un saludo.
 TabsFácil.





In any tongue. David Gilmour.

(4:57)
1.--------16------------16----|
2.-18(20)----18--18(20)----18-|
3.----------------------------|
4.----------------------------|
5.----------------------------|
6.----------------------------|

1.----------------------------|
2.----------------------17----|
3.---------------13(15)----13-|
4.-----13--13-15--------------|
5.-/15------------------------|
6.----------------------------|


1.----------------------------|
2.----------------------------|
3.----------------------------|
4.-15--13(15)-15--10-10h11h10-|
5.----------------------------|
6.----------------------------|


1.----------------------------|
2.----------------------------|
3.------------10-12(13)(12)-10
4.----10--/10-----------------|
5.-13-------------------------|
6.----------------------------|


1.----------------------------|
2.----------------------------|
3.-12(13)(12)-10--------------|
4.---------------13--10-13-10-|
5.----------------------------|
6.----------------------------|


1.----------------------------|
2.-18-20-20(21)-20-18-18------|
3.-----------------------20---|
4.----------------------------|
5.----------------------------|
6.----------------------------|


1.----------------|
2.----------------|
3.-/17--20(22)-20-|
4.----------------|
5.----------------|
6.----------------...




No hay comentarios:

Publicar un comentario