.

banners

Tabs fácil de... Fallen star. Kamelot.


   Un álbum del que merece la pena mencionar más de una vez,  es el último trabajo de Kamelot, "Haven". 
     Un buenísimo disco que nos presentan y que algunas críticas lo sitúan como el mejor de la banda. Muy a tener en cuenta sin duda.
    Yo os quiero dejar unos momentos en tabs fáciles del tema inicio del plástico, se llama "Fallen star" y espero que os guste y disfrutéis.
   Un saludo.
   TabsFácil.





Fallen star. Kamelot.

(0:47)
1.-------------3-3--------4-3-----------
2.-----------4----------4-----6--4------
3.---/5--5h7--------5h7-----------------
4.----------------------------------6--8
5.--------------------------------------
6.--------------------------------------

1.------------------3-3--------4----4-3-
2.----------------4----------4---6------
3.--------/5--5h7--------5h7------------
4.--6--5--------------------------------
5.--------------------------------------
6.--------------------------------------

1.-------------8\-
2.--4-3--1-3-1----
3.----------------
4.----------------
5.----------------
6.--------------...

(1:05)
1.--------------------------------------
2.--------------------------------------
3.--------------------------------------
4.--------------5--6-6-6--6-6-3---------
5.---3-3-3--3-3------------------3-3-3--
6.--------------------------------------

1.------------------------------------
2.------------------------------------
3.------------------------------------
4.------5----3-3-3-----------------5--
5.--3-3--3---------6-5--3-3-3--3-3----
6.------------------------------------

1.---------------
2.---------------
3.---------------
4.--6-6-6--6-6-3-
5.---------------
6.------------...

Más tablaturas de...

No hay comentarios:

Publicar un comentario en la entrada