.

banners

Tabs fácil de... Anywhere you want to go. Santana.

  Otro de los adelantos de la esperada reunión de todos los integrantes originales de Santana es "Anywhere you want to go"
un tema del que os quiero dejar unos fragmentos, unas tablaturas fáciles para que practiquéis y paséis un buen rato tocando al estilo de este gran guitarrista.
  Un saludo.
  Tabs Fácil.







Anywhere you want to go. Santana.



(0:26)
1.------------------------
2.------------------------
3.------------------------
4.-/7h5-------------------
5.------7-5----7-5--------
6.----------8------8--5-5-...


(0:37)
1.-------------------------------------------
2.---------------/8--------------------------
3.-----------9-9----9------------------------
4.-----10-12----------12-10--/12-------12----
5.-/12---------------------------12-15----12-
6.----------------------------------------...


(3:37)
1.-----------------------------------------
2.-----------------------------------------
3.----21-19(21)(19)--19h17-----17----15(17)
4.-19----------------------19-----19-------
5.-----------------------------------------
6.-----------------------------------------

1.-------------
2.-------------
3.-(15)(17)(15)
4.-------------
5.-------------
6.-------------...

No hay comentarios:

Publicar un comentario