.

banners

Tablatura fácil de...Veil of elysium. Kamelot.


   Hacia Mayo del año pasado, los americanos Kamelot lanzaban al mercado "Haven" su último trabajo. El tema que eligieron como adelanto se trataba de "Veil of Elysium" del que os quiero dejar unos momentos en tablatura fácil que espero como siempre que os guste y disfrutéis.
   Un saludo.
  TabsFácil.





Veil of elysium. Kamelot.

  (0:17)
1.--------------------------------------
2.------6--10--8--6h8h6-5---------------
3.---7--------------------7--5h7h5------
4.---------------------------------7--5-
5.--------------------------------------
6.--------------------------------------

1.--------------------------------------

2.-------------6-------------------6--10
3.---------------9--7h9h7h5-7---7-------
4.---7-8--7-8---------------------------
5.--------------------------------------
6.--------------------------------------

1.--------6----------6------------------

2.---8-10---10--8-10---8--6--8h6h5h6h5--
3.--------------------------------------
4.-------------------------------------7
5.--------------------------------------
6.--------------------------------------

1.-----------------------------

2.--------8-10-8-6h8h6---------
3.---------------------9--5--7-
4.---5-7-----------------------
5.-----------------------------
6.----------------------------...


Más tablaturas de...Kamelot.

No hay comentarios:

Publicar un comentario en la entrada