.

banners

Tablatura fácil de...All the time in the world. Deep Purple.


  Parece ser que Deep Purple anda trabajando en lo que será su próximo disco, mientras esperamos y cómo no podía ser de otra manera en este blog de tablaturas fáciles para guitarra, os quiero dejar unos momentos en tablatura, el tabs fácil de lo que fuera el tema presentación de hasta la fecha su última publicación, una parte del solo que se marca Steve Morse en "All the time in the world."
  Un saludo.
  TabsFácil.












All the time in the world. Deep Purple.



(2:00)

1.-----17-17---19-16---------17-------------------
2.-------------------17-------------17(19)(17)-14-
3.-14--------------------14------14---------------
4.------------------------------------------------
5.------------------------------------------------
6.------------------------------------------------


1.---------------------------------
2.-----16(17)(16)-14---------------
3.-16----------------14-13------14-
4.--------------------------16-----
5.---------------------------------
6.---------------------------------


1.-17-17---19-16--------17-
2.---------------17--------
3.------------------14-----
4.-------------------------
5.-------------------------
6.-------------------------


1.---------------------------------------------
2.----17(19)(17)-14------16(17)(16)-14---------
3.-14---------------16-----------------14-13---
4.-------------------------------------------16
5.---------------------------------------------
6.---------------------------------------------... 

No hay comentarios:

Publicar un comentario en la entrada