.

banners

Tablatura fácil de... Varangian. Grand Magus.


  Para el próximo mes de Mayo está prevista la salida al mercado de un nuevo trabajo de los suecos Grand Magus, banda de trepidantes riffs de heavy metal clásico del que hoy os quiero dejar en primicia en tablatura fácil, uno de esos riffs del tema "Varangian" que formará parte del nuevo disco titulado "Swords song."
  Espero y deseo desde tablaturas fáciles, que lo disfrutéis y paséis un buen rato con esta fenomenal banda.
  Un saludo.
  TabsFácil.





Varangian.

1.-----------------------------------------|
2.-----------------------------------------|
3.-----------------------------------------|
4.-----------------------------------------|
5.----4h3h1---1---1-3-4h3h1---1--4h3h1---1-|
6.-//-------4---------------4----------4---|

1.--------------|

2.--------------|
3.--------------|
4.--------------|
5.-3-4--6--3--6-|
6.------4--1--4-|

1.---------------------------------------|

2.---------------------------------------|
3.---------------------------------------|
4.---------------------------------------|
5.--4h3h1---1---1-3-4h3h1---1--4h3h1---1-|
6.--------4---------------4----------4---|

1.--------------|

2.--------------|
3.--------------|
4.------------3-|
5.-3-4--6--3--1-|
6.------4--1----|


(2:09)

1.--------------------------|
2.-/8-----------------------|
3.----8---------------------|
4.------10------------------|
5.---------10-8-------------|
6.--------------11-10-8-6-8-|...




Más tablaturas de... Grand Magus.

No hay comentarios:

Publicar un comentario en la entrada