.

banners

Tablatura fácil de... Solid Geomethry. Pedro Santos.

  Vía twitter llegaba  a mis manos el nombre de Pedro Santos como ganador del I Concurso de Guitarristas Rock FM Extremadura.
  Me picó la curiosidad y me llevé una grata sorpresa al escuchar su último disco al completo. Escúchalo tu también.
  Un sonido y una técnica impresionante. Pensaba que el calificativo de "Guitar hero" que tanto se llevaba años atrás estaba en desuso pero me alegra ver que aún queda gente a la que se le puede aplicar dicho calificativo, bueno, tengo que reconocer que Pedro Santos ya lleva unos añitos en el mundo de la guitarra y que yo, desgraciadamente lo acabo de descubrir. Sea como fuere me apetecía dedicarle unas tablaturas fáciles que espero os gusten y los disfrutéis.
  Un saludo.
  Tabs Fácil. 




Solid Geomethry. Pedro Santos.


1.------------------------------------------
2.------------------------------------------
3.------------------------------------------
4.-------9-------9-------9-------9----7-9-7-
5.----10------10------10------10---10-------
6.-12------12------12------12------------...

1.--------------------7--------------------

2.-------12-10--8h7h8---8-7----------------
3.----12--------------------9------------11
4.-14---------------------------14h12h14---
5.-----------------------------------------
6.-----------------------------------------

1.-----------------------------------------

2.---------------8-------------------------
3.-----------------------------------------
4.-14h12/-10-9------10h9h10h9--/7-/5-/4h5h4
5.-----------------------------------------
6.-----------------------------------------

1.---------------

2.---------------
3.---------------
4.---/2h0h2h0h2--
5.---------------
6.-------------...




No hay comentarios:

Publicar un comentario