.

banners

Tablatura fácil de... San Francisco blue. Joe Satriani.


 

 El 24 de Julio del 2014 lanzaba este monstruo de la guitarra su último trabajo, repleto de su característico estilo y virtuosísmo.
  "San Francisco blue" era uno de los temas con los que presentó el disco en su día, y hoy os quiero dejar un momento en tablatura, una tablatura fácil del tema en cuestión que, espero, que os guste y disfrutéis.
   Un saludo.
   TabsFácil.





San Francisco blue. Joe Satriani.

1.------------------------------------
2.------------------------------------
3.------------------------------------
4.-----5----6----5--3/4\3-1----5----6-
5.--3h6--3h6--3h6-----------3h6--3h6--
6.------------------------------------

1.----------------------------------
2.----------------------------------
3.----------------------------------
4.-------------5----6--/8-/8-/8-8-6-
5.--3h6-6---3h6--3h6----------------
6.----------------------------------

1.-------------------------------------
2.----------------------------------6-8
3.-------------------------3-5--7-8----
4.-----5----3-----1-1---1--------------
5.--3h6--3h6---1h3----3----------------
6.-------------------------------------

1.-6----3-----------------------8------
2.---6----4-----------6(8)(6)-8---6(8)-
3.----------3-5--7-8-------------------
4.-------------------------------------
5.-------------------------------------
6.-------------------------------------

1.-8-6---8-6---11(13)-11---------------
2.-----8-----8-----------13-11---------
3.-----------------------------12-10(12)
4.-------------------------------------
5.-------------------------------------
6.-------------------------------------

1.-----------------------------6---3---
2.-------------------------6-8---6---4-
3.-(10)h8----8---3-5--7-8--------------
4.--------10---------------------------
5.-------------------------------------
6.-------------------------------------

1.-------------------------------------
2.-------------------------------------
3.--3-5--7-8---8--8--8--8-7------------
4.-------------8--8--8--8-8------5----6
5.-------------6--6--6--6-5---3h6--3h6-
6.-------------------------------------

1.-------------------------------------
2.-------------------------------------
3.-------------------------------------
4.-----5--3/4\3-1-----5----6-5-3-----1-
5.--3h6------------3h6---3--------1h3--
6.-------------------------------------

                          (1:26)
1.-------------------------------------
2.------------------------/8-6---------
3.-----------------------------6(8)(6)-
4.--1---1------------------------------
5.----3------------9h8-6---------------
6.---------8/9\8-6---------------------

1.-------------------------------------
2.-------7-7-6--------7-7-7-6----------
3.--8--8-------8-6--8---------8-8-6-8--
4.-------------------------------------
5.-------------------------------------
6.-------------------------------------

1.-------------------------
2.--7-6--------------------
3.------8-6--------------8-
4.----------8h6/4----------
5.----------------4h6/9----
6.------------------------...

Más tablaturas de...Joe Satriani.

No hay comentarios:

Publicar un comentario en la entrada