.

banners

Tablatura fácil de... Redeemer of souls. Judas Priest.


 Grabado en 2 de sus conciertos de la gira europea, alguno de ellos ante más de 85.000 personas, "Battle cry" es el nombre del DVD con el que los Judas Priest vuelven a estar de actualidad.
  Aprovecho de paso, la ocasión para dejaros un tabs fácil de "Redeemer of souls" uno de los temas que forman parte del repertorio del DVD.
  Un saludo.
  Tabs Fácil.






"Redeemer of souls". Judas Priest.


1.-------------------------------------------------
2.-------------------------------------------------
3.-------------------------------------------------
4.---4-4-----4-4-----5-4-2-4-4-----4-4-----4-4-----
5.---2-2-2-2-2-2-2-2-------2-2-2-2-2-2-2-2-2-2-2-2-
6.-------------------------------------------------

1.---------------------------------------------------
2.---------------------------------------------------
3.---------------------------------------------------
4.---5-4-2-4-4-----4-4-----4-4-----5-4-2-4-4-----4-4-
5.---------2-2-2-2-2-2-2-2-2-2-2-2-------2-2-2-2-2-2-
6.---------------------------------------------------

1.-------------------------------------------------
2.-------------------------------------------------
3.-------------------------------------------------
4.-------4-4-----5-4-2-4-4-----4-4-----5-4-2-4-----
5.---2-2-2-2-2-2-------2-2-2-2-2-2-2-2-------2---5-
6.-----------------------------------------------3-

1.-------------------------------------------------
2.-------------------------------------------------
3.-------------------------------------------------
4.---4---2-------4-4-----4-4-----5-4-2-4-------4---
5.---2---0---4---2-2-2-2-2-2-2-2-------2---5---2---
6.-----------2-----------------------------3-------

1.---------------------------------------------------
2.---------------------------------------------------
3.---------------------------------------------------
4.---2-------4-4-----4-4-----3-3-----3-3-----4-4-----
5.---0---5---2-2-2-2-2-2-2-2-1-1-1-1-1-1-1-1-2-2-2-2-
6.-----2---2-----------------------------------------

1.---------------------------------------------------
2.---------------------------------------------------
3.---------------------------------------------------
4.---4-4-----3-3-----------------------------7-7-7-7-
5.---2-2-2-2-1-1-1-1---4---5-5-5-5-5-5-5-5---5-5-5-5-
6.---------------------2---3-3-3-3-3-3-3-3-----------

1.-----------------------------------------
2.-----------------------------------------
3.-----------------------------------------
4.---7-7-7-7-------------------------------
5.---5-5-5-5---4-4-----4-4-------------4---
6.-------------2-2-2-2-2-2-2-3-0-2-3-0-2---. . .

(2:10)
1.--------------------------------------------------
2.--------------------------------------------------
3.--------------------------------------------------
4.---2h3h2---2-----------2----2h3h2---2-----------5-
5.---------5---5-2-5-2-5---5--------5---5-2-5-2-0-3-
6.--------------------------------------------------

1.--------------------------------------------------
2.--------------------------------------------------
3.--------------------------------------------------
4.---2h3h2---2-----------2----2h3h2---2-----------5-
5.---------5---5-2-5-2-5---5--------5---5-2-5-2-0-3-
6.--------------------------------------------------

1.--------------------------------------------------
2.-------/7---/7---8h7h5h7--------------------------
3.--------------------------------11h12h11h9-9-11-9-
4.---/4---------------------------------------------
5.----------------------------/9--------------------
6.--------------------------------------------------


1.--------------------------------------------------
2.----------------------------------11----12h11h8h11
3.------9------------------------------11-----------
4.---12---12-11-9----9------------------------------
5.----------------10---10-7-9---9-------------------
6.--------------------------------------------------

                                   (   improviso   )
1.-------------------------------------------------13-
2.---12-11-----------------------------11--------11---
3.---------11(12)(11)(12)(11)-------11---------11-----
4.--------------------------------11---------11-------
5.----------------------------9h12--------12----------
6.----------------------------------------------------


1.-----------------------
2.---17(18)(17)-15-------
3.-----------------16----
4.-----------------------
5.-----------------------
6.----------------------. . .

No hay comentarios:

Publicar un comentario