.

banners

Tablatura fácil de... Lo hago por ti. Coque Malla.

  Saca tu guitarra acústica que hoy vamos a practicar con una de las tablaturas fáciles que podemos extraer del disco de regreso de Coque Malla.
  El tema "Lo hago por ti" forma parte del disco llamado "El último hombre en la tierra" que salió a la luz en Febrero de este año.
  Un saludo.
  Tabs Fácil.






Lo hago por ti. Coque Malla.

1.-----0-1-1----0-1----0-1--------|
2.-1-3--------1------1------------|
3.--------------------------3-2---|
4.------------------------------3-|
5.--------------------------------|
6.--------------------------------|


1.-1---0-1--6-------------0-1-1---|
2.---1--------5-6-----1-3--------1
3.----------------5---------------|
4.--------------------------------|
5.--------------------------------|
6.--------------------------------|


1.-0-1---0-1---------1---0-1--6-5-------1-|
2.-----1---------------1----------8-6---1-|
3.------------3-2-----------------------2-|
4.----------------3---------------------3-|
5.--------------------------------------3-|
6.--------------------------------------1-|




No hay comentarios:

Publicar un comentario en la entrada