.

banners

Tablatura fácil de... Legendary child. Aerosmith.



  En Tablaturas fáciles no podía faltar Joe Perry y, aunque estoy preparando algo de su nueva incursión en el mundo de la música junto a Alice Cooper y Jhonny Deep, mientras tanto os dejo un riff de uno de sus últimos trabajos con Aerosmith.

  Un saludo.
  TabsFácil.






Legendary child. Aerosmith.

1.---------------------------------------------------
2.---------------------------------------------------
3.----------4-7--------4----------4--7-6-----9-8----7
4.-2--/6-7-------/6-7-----4--6-7----------7-------9--
5.---------------------------------------------------
6.---------------------------------------------------

1.---------------------------------------------
2.---------------------------------------------
3.--------4-7-------4---------4--7-6-----9-8---
4.--/6-7------/6-7-----4--6-7---------7------9-
5.---------------------------------------------
6.---------------------------------------------

1.---------------------------------------------
2.--7---7---7-7-7-7----------------------------
3.---------------------------------------------
4.---------------------2-2h0---2-----2-2h0---2-
5.---------------------------2----2--------2---
6.------------------0--------------------------. . .

No hay comentarios:

Publicar un comentario en la entrada