.

banners

Tablatura fácil de... Kiss it better. Rihanna.


  El último sencillo de Rihanna nos ofrece un riff que hemos querido aprovechar en tablaturas fáciles para que vosotros lo podáis disfrutar y aprovechar en vuestra práctica.
  Así que, sin más dilación ahí tenéis Rihanna en Tabs fáciles.
  Un saludo.
 Tabs Fácil.








Kiss it better. Rihanna.

1.---------------------------------------|
2.-14-14--12-11-12-/14-----14--14-14--12-|
3.---------------------11----------------|
4.---------------------------------------|
5.---------------------------------------|
6.---------------------------------------|

1.------------------|
2.-11-12-/14--------|
3.-----------11/-13-|
4.------------------|
5.------------------|
6.------------------|

1.---------------------------------------|
2.-14-14--12-11-12-/14-----14--14-14--12-|
3.---------------------11----------------|
4.---------------------------------------|
5.---------------------------------------|
6.---------------------------------------|

1.------------------|
2.-11-12-/14--------|
3.-----------11/-13-|
4.------------------|
5.------------------|
6.------------------|


1.--------------|
2.---/11--11--\-|
3.--------------|
4.--------------|
5.--------------|
6.--------------|


No hay comentarios:

Publicar un comentario