.

banners

Tablatura fácil de... Exceptional. Unisonic.


 Es siempre un gustazo escuchar la voz de Michael Kiske, sea colaborando con quien sea o en el proyecto que sea, eso si, sería la leche poder escucharlo otra vez con los Helloween de toda la vida. De todas formas Unisonic gracias también a Kai Hansen es sin duda lo más parecido que podemos encontrar hoy en día...
  "Exceptional" de Unisonic hoy en las tablaturas fáciles. 
   Un saludo.
   TabsFácil.





Exceptional. Unisonic.


“I walk in shadows…                            …to be crowned…
1.----------------------------------------------
2.----------------------------------------------
3.----------------------------------------------
4.----4--2--4------4---2---4---2---4--4-4-4-4-4
5.-4--2--0--2--4---2---0---2---0---2--2-2-2-2-2
6.-2-----------2--------------------------------


(0:59) “I can be exceptional, sensational for you…
And I can’t be acceptable, expendable to you…
1.-------------------------------------
2.-------------------------------------
3.-------------------------------------
4.----------2-4------6-7------9--------
5.-4--------0-2------4-5------7------4-
6.-2---------------------------------2-


(3:17)
1.---------------------------------------------
2.---------------------------------------------
3.---------------------------------------------
4.-4-6-7-7---6-7-9-9---11-9-7---9-7-6---7-6-4-4
5.---------------------------------------------
6.---------------------------------------------


1.---------------------------------------
2.---------------------------------------
3.---------------------------------------
4.-4-6-7-7---6-7-9-9---11-9-7---9-7-6---4
5.---------------------------------------
6.---------------------------------------


1.---------------------------------------------
2.---0-2-2---0-2-3-3---5-3-2---3-2-0---2-0-----
3.-2---------------------------------------2-2-
4.---------------------------------------------
5.---------------------------------------------
6.---------------------------------------------


1.---------------------------------------------
2.---0-2-2---0-2-3-3-----------7-9-10-10---9-10
3.-2-------------------------------------------
4.--------------------7--4---------------------
5.--------------------5--2--4------------------
6.--------------------------2------------------


1.---------------------------------------
2.-12-12---12(14)-12-10-12-10-9-10-9-7-7-
3.---------------------------------------
4.---------------------------------------
5.---------------------------------------
6.--------------------------------------. . .

Más tablaturas de... Unisonic.

No hay comentarios:

Publicar un comentario en la entrada