.

banners

Tablatura fácil de... Electricity. Motörhead.


  El 28 de Agosto del año pasado, salía a la luz lo que sería el último trabajo de Motörhead. 40 años de vida, 22 álbumes de estudio y seguían haciendo música tan buena como ésta, y es por eso que so quiero dejar unos momentos en tablatura del tema  "Electricity" bueno, tan solo ese riff tan pegadizo que da vida al tema.
  Un saludo.
  TabsFácil.






Electricity. Motörhead.

1.------------------------------|
2.------------------------------|
3.------------------------------|
4.--8-8--6-8--6-8-8--6-8--6-8-8-|
5.--6-6--4-6--4-6-6--4-6--4-6-6-|
6.------------------------------|

1.------------------------------|

2.------------------------------|
3.------------------------------|
4.--6-8--6-8-8--6-8--6-8-8--6-8-|
5.--4-6--4-6-6--4-6--4-6-6--4-6-|
6.------------------------------|

1.-------------------------|
2.-------------------------|
3.-------------------------|
4.--6-8-8--6-8--6-8-8--6-8-|
5.--4-6-6--4-6--4-6-6--4-6-|
6.-------------------------...

(0:15)

1.------------------------------|
2.------------------------------|
3.------------------------------|
4.--6-6--6-6--6-6-6--6-6--6-8-8-|
5.--4-4--4-4--4-4-4--4-4--4-6-6-|
6.------------------------------...

No hay comentarios:

Publicar un comentario