.

banners

Tablatura fácil de... Drive. Joe Bonamassa.

  "Drive" es el tema elegido por el guitarrista Joe Bonamassa para lanzar su primer sencillo con video clip incluído, de su última obra "Blues of desperation."
   Busca un momento en tu agenda, enchufa la guitarra y ponte a practicar y disfrutar con las tablaturas fáciles que tenemos para ti de  un grande del instrumento.
  Un saludo.
  Tabs Fácil.







Drive. Joe Bonamassa.



1.---------------------------------------|
2.---------------------------0-----------|
3.-------------0-2-----------0-----0-2---|
4.---2--4-5--------2----2--4-5---------2()
5.-2---------2--------2---------2--------|
6.---------------------------------------|


1.---------------------------------------|
2.--------5----1-3-------------0---------|
3.---2--4-5--------2()---------0----0-2--|
4.-2---------2------------2--4-5--------2
5.----------------------2---------2------|
6.---------------------------------------|


1.-----------------------------------|
2.--------------------1-1-1-1--1-1---|
3.---------------------------------2-|
4.-----------------------------------|
5.-2-2-2-2--2-2----------------------|
6.--------------2-2------------------|

1.--------------------------|
2.--------------------------|
3.-------------0-2----------|
4.---2--4-5--------2()--0-2-|
5.-2---------2--------------|
6.--------------------------|...


No hay comentarios:

Publicar un comentario en la entrada