.

banners

Tablatura fácil de... Down in flames. Judas Priest.



 Los Judas Priest vuelven a estar de actualidad con la salida al mercado de su DVD "Battle Cry" pedazo de repaso a su discografía en dos de sus conciertos dados en Europa...
  De su anterior disco, es del que os quiero dejar algunas tablaturas fáciles, aunque, se podrían sacar infinidad de momentos guitarristicos de buen heavy metal, como por otra parte, no podía ser de otra manera.
  "Down in flames" os dejo el riff inicio que espero que os guste como queda.
   Un saludo.
   Tabs Fácil.











                         

Down in flames. Judas priest.

(Guitarra2).
1.---------------------------10-12-10-8-10-
2.----10---12---13-12-10-13----------------
3.--9----9----9----------------------------
4.-----------------------------------------
5.-----------------------------------------
6.-----------------------------------------


1.--12-13-12-10-13--13-15------------------
2.-----------------------------------------
3.-----------------------------------------
4.--------------------------7--9--10-9-7-10
5.------------------------7---7--7---------
6.-----------------------------------------


1.--7-9-7-5-7--9-10-9-7-10--12-14--
2.---------------------------------
3.---------------------------------
4.---------------------------------
5.---------------------------------
6.---------------------------------

 (0:10)(Guitarra1).
1.-----------------------------------------
2.-----------------------------------------
3.-----------------------------------------
4.--2-------------------------5------------
5.--0-------------------------3------------
6.-----------------------------------------

(Guitarra2).
1.---------------------------10-12-10-8-10-
2.----10---12---13-12-10-13----------------
3.--9----9----9----------------------------
4.-----------------------------------------
5.-----------------------------------------
6.-----------------------------------------

(Guitarra1).
1.-----------------------------------------
2.-----------------------------------------
3.-----------------------------------------
4.--7----------------10----2---------------
5.--5----------------8-----0---------------
6.-----------------------------------------

(Guitarra2).
1.--12-13-12-10-13--13-15------------------
2.-----------------------------------------
3.-----------------------------------------
4.--------------------------7--9--10-9-7-10
5.------------------------7---7--7---------
6.-----------------------------------------

(Guitarra1).
1.--------------------------------
2.--------------------------------
3.--------------------------------
4.--5-----------7-----------10----
5.--3-----------5-----------8-----
6.--------------------------------

(Guitarra2).
1.--7-9-7-5-7--9-10-9-7-10--12-14--
2.---------------------------------
3.---------------------------------
4.---------------------------------
5.---------------------------------
6.---------------------------------

(0:20)
1.---------------------------------------
2.---------------------------------------
3.---------------------------------------
4.--2-----3-----0-----2----------2-----3-
5.--0-0-0-0-0-0-0-0-0-0-0-0-3hh2-0-0-0-0-
6.---------------------------------------


1.--------------------------
2.--------------------------
3.--------------------------
4.-------0-----2---------2--
5.---0-0-0-0-0-0-0-3-2-5-0--...
6.--------------------------

(0:31)
1.-------------------------
2.-------------------------
3.--7/9\7------------------
4.--------9/10\9--9-7----7-
5.--------------------10---
6.-------------------------...



No hay comentarios:

Publicar un comentario