.

banners

Tablatura fácil de... Blues magic. Santana.


  Vuelve Santana y con la formación original, esa es la noticia que ronda por la web y la prensa especializada desde hace unos meses así que, a esperar, menos mal que mientras tanto nos han dejado degustar un par de temas.
  "Blues magic" es uno de ellos y os quiero dejar en tablaturas fáciles un momento del inicio del tema. Como no podía ser de otra manera, Santana en www.tabsfacil.es.
  Un saludo.
  TabsFácil.








"Blues magic". Santana.



1.-------------------------------------
2.----------------13/-15-13--15(17)(15)
3.-------------------------------------
4.---------7h10------------------------
5.-5/-7h10-----------------------------
6.-------------------------------------

1.-------------------------------------
2.-13h15h13----------------------------
3.----------14-14/-17---??---7(9)(7)h5-
4.-------------------------------------
5.-------------------------------------
6.-------------------------------------

1.--------------------------------
2.--------------------------------
3.-7(9)(7)h5-------5----------5---
4.-----------7-5-7---7----5-7---7-
5.----------------------7---------
6.--------------------------------...



No hay comentarios:

Publicar un comentario en la entrada