.

banners

Tablatura fácil de... Back in the day. Megadeth.



  Al parecer andaba suelto hace unos meses por ahí un video inédito para este tema, que por cierto no había escuchado nunca y me parece un temazo increíble...
  De todas formas yo no voy a poner el video en cuestión, me ha parecido más interesante si cabe dejaros unos momentos en tablatura, unas tablaturas fáciles del tema que me ha dejado maravillado, cosa que ya me tenía acostumbrado el señor Mustaine y compañía.
  Un saludo.
  Tabs Fácil.





Back in the day. Megadeth.


1.-------------------------------------------------
2.-------------------------------------------------
3.-------------------------------------------------
4.---10---8---7---8---7-7---10---8---7---8---7-7---
5.-------------------------------------------------
6.-------------------------------------------------

1.-------------------------------------------------
2.-------------------------------------------------
3.-------------------------------------------------
4.---10---8---7---8---7-7---10---8---7---8---7-7---
5.-------------------------------------------------
6.-------------------------------------------------

(0:37)
1.-------------------------------------------------------
2.-------------------------------------------------------
3.-------------------------------------------------------
4.---7----------------------------7----------------------
5.---5---7---8--------------------5---7---8---------10---
6.-------5---6-6-6-6---6-6---6-6------5---6-6-6-6-6-8----

1.-------------------------------------------------------
2.-------------------------------------------------------
3.-------------------------------------------------------
4.---7----------------------------7----------------------
5.---5---7---8--------------------5---7---8---------10---
6.-------5---6-6-6-6---6-6---6-6------5---6-6-6-6-6-8----

(1:55)
1.----------------------------------------------------
2.----------------------------------------------------
3.----5-5-5-5-5-5-5-5-5-5-7-8-5-5-5-5-5-5-5-5-5-5-8-7-
4.----------------------------------------------------
5.----------------------------------------------------
6.----------------------------------------------------

1.-------------------------------------------------------
2.--------------------------------------------------------
3.---5-5-5-5-5-5-5-5-5-5-7-8-5-5-5-5-5-5-5-5-5-8-7-8-8-8-
4.-------------------------------------------------------
5.-------------------------------------------------------
6.-------------------------------------------------------

1.-------------------------------------------------------
2.-------------------------------------------------------
3.---8-8-8-8-8-7-7-7-7-7-7-7-7-6-6-6-6-6-6-6-6-5-5-5-5-5-
4.-------------------------------------------------------
5.-------------------------------------------------------
6.-----------------------------------------------------. . .





No hay comentarios:

Publicar un comentario