.

banners

Tablatura fácil de... Baby blue. Jeff Haley.


  Con el motivo de la celebración de los 50 años del gran guitarrista Jeff Haley, se lanzaba en Marzo esta obra póstuma, "Heal my soul."
   Un guitarrista tan singular y de la talla de Jeff Haley no podía faltar en Tablaturas fáciles, por lo que hoy os quiero dejar un momento en tablatura del tema presentación del álbum, "Baby blue."
  Un saludo.
  TabsFácil.





Baby blue. Jeff Haley.

       (2:08)
1.------------------------------------|
2.-19(18)--15-17----------------------|
3.---------------16-14-------14-------|
4.---------------------14h16----14h16-|
5.------------------------------------|
6.------------------------------------|

1.-------------------------------------|
2.-------------------------------------|
3.-14---14(16)14-----------------------|
4.----16----------16h14----------------|
5.----------------------17----16-17-14-|
6.-------------------------17----------|

1.-----------------------------|
2.-----------------------------|
3.-14(16)(14)(16)(14)----------|
4.--------------------14h12----|
5.--------------------------14-|
6.-----------------------------|...




Más tablaturas de...

No hay comentarios:

Publicar un comentario