.

banners

Tablatura fácil de... Atormentado. Legado de una tragedia I.



  

   Aprovechando que ya se está grabando la 3ª entrega de esta Opera rock, os quiero dejar unas tablaturas fáciles de varios temas de las partes anteriores de dicha obra.
  En esta ocasión empezaremos por el tema "Atormentado" y ese riff de inicio tan metal de los ochenta con la voz inconfundible del vocalista de Sangre Azul.
  Un saludo.
  Tabs Fácil.




Atormentado. Legado de una tragedia I.



1-------------------------------------------------------
2-------------------------------------------------------
3-------------------------------------------------------
4-----2-----3-----0-----2------------2-----3-----4-4-5-2
5-0-0---0-0---0-0---0-0---2-3-0--0-0---0-0-------2-2-3-0
6-------------------------------------------------------

1------------------------------------------
2------------------------------------------
3------------------------------------------
4-----2-----3-----0-----2-------------5—4—2
5-0-0---0-0---0-0---0-0---2-3-----3---3—2—0
6---------------------------------1--------


1----------------------------------------------------------------
2----------------------------------------------------------------
3----------------------------------------------------------------
4-----2-----3-----0-----2------------2------3-------0------2-----
5-0-0---0-0---0-0---0-0---2-3-0--0-0----0-0-----0-0----0-0----2-3
6----------------------------------------------------------------

1--------------------
2--------------------
3--------------------
4--------------------
5-3-3-3—3----3-2-0-2-
6-1—1—1—1------------

1---------------------------------------------------------------
2---------------------------------------------------------------
3---------------------------------------------------------------
4-----2-----3-----0-----2-------------2-----3------0------2-----
5-0-0---0-0---0-0---0-0---2-3-0--0-0----0-0----0-0----0-0----2-3
6--------------------------------------------------------------

1--------------------------------------------------
2--------------------------------------------------
3--------------------------------------------------
4-----------------------------5-5-5-5--4-4-4-4---4-
5-5-5-5-5---5-3-2-3--3-3-3-3--3-3-3-3--2-2-2-2---2-
6-3-3-3-3------------1-1-1-1-----------------------



Más tablaturas de...Legado de una tragedia.

No hay comentarios:

Publicar un comentario