.

banners

Tablatura fácil de... Alpenglow. Nightwish.

  No podía dejar de publicar alguna de las tablaturas fáciles que tengo de una de mis bandas favoritas y de su último plástico.
   Espero que la disfrutéis como yo lo he hecho.
  Un saludo.
  Tabs Fácil.





Alpenglow. Nightwish.

1.-----------------------------------------
2.-----------------------------------------
3.-----------------------------------------
4.-----------------------------------------
5.---5-5--5-5--5-5--5-5--5-5--5-5--5-5--5-5
6.---3-3--3-3--3-3--3-3--3-3--3-3--3-3--3-3...

  (0:26)
1.-----------------------------------------
2.-----------------------------------------
3.--0-2-3--------0--3-2-3-2-0--0-2-3-2-3-2-
4.---------1--1-3--------------------------
5.-----------------------------------------
6.-----------------------------------------


1.-----------------------------------------
2.-----------------------------------------
3.---------------0-2-3--------0--3-2-3-2---
4.---3-----------------1--1-3--------------
5.---1---3---5----------------------------5
6.-------1---3----------------------------3

1.-----------------------------------------
2.-----------------------------------------
3.-----------------------------------------
4.-----------------------------------------
5.--5-5--5-5--5-5--5-5--5-5--5-5--5-5--3--5
6.--3-3--3-3--3-3--3-3--3-3--3-3--3-3--1--3


1.-----------------------------------------
2.-----------------------------------------
3.--0-2-3--------0--3-2-3-2-0--0-2-3-2-3-2-
4.---------1--1-3--------------------------
5.-----------------------------------------
6.-----------------------------------------


1.-----------------------------------------
2.-----------------------------------------
3.---------------0-2-3--------0--3-2-3-2---
4.---3-----------------1--1-3--------------
5.---1---3---5----------------------------5
6.-------1---3----------------------------3

1.-----------------------------------------
2.-----------------------------------------
3.--------------------------------2--------
4.--------------------------------0--------
5.--5-5--5-5--5-5--5-5--5-5---5-------2----
6.--3-3--3-3--3-3--3-3--3-3---3-------0--...


  (2:50)
1.-----------------------------------------
2.----------------7-8-7--------7-8-10-8-7--
3.--------7---9----------7--9-------------7
4.---/9------------------------------------
5.-----------------------------------------
6.-----------------------------------------


1.------------------------/12-10---------------
2.----7h8h7--5-5h7h5-------------12-10--8--/3--
3.-9-----------------7------------------------4
4.---------------------7-----------------------
5.---------------------------------------------
6.------------------------------------------...


No hay comentarios:

Publicar un comentario en la entrada