.

banners

Acordes de... Love without tragedy. Rihanna.


  Aprovechando la salida de doble single de la de Barbados, en Tablaturas fáciles os queremos dejar también doble entrada de Rihanna.
  Esta vez los Acordes del tema "Love without tragedy" con los que espero que disfrutéis tocando y aprendiendo un buen rato.
  Un saludo.
  Tabs Fácil.










Love without tragedy. Rihanna.


    Do#m    la      si    do#    la      si     la    si

1.---9-------5------7------9------5------7------5------7
2.---9-------5------7------9------5------7------5------7
3.---9-------6------8------9------6------8------6------8
4.---11------7------9-----11------7------9------7------9
5.---11------7------9-----11------7------9------7------9
6.---9-------5------7------9------5------7------5------7



1.-------------------------------
2.-------5-------5-------4---4---
3.-----6---6---6---6---5---5-----
4.---6---------------------------
5.-------------------------------
6.------------------------------- . . .

No hay comentarios:

Publicar un comentario en la entrada