.

banners

The Elder Scrolls By Victor de andres.

  A mi gusto uno de los mejores guitarristas ya no de este país, del mundo entero, conocido por sus covers de temas de películas, por sus colaboraciones con otras bandas, por sus propios trabajos y últimamente por formar parte de Zenobia. Todo un guitarrista del que no podía faltar una tablatura fácil en tu blog de tabs fáciles.
   Un saludo.
  TabsFácil.





              
 The Elder Scrolls By Victor de andres.


(0:41)

1.----------------------------------------------------------
2.----------------------------------------------------------
3.----------------------------------------------------------
4.-5---5-5-5---5-5-5---8---8-8-8---8-8-8--------------------
5.-3---3-3-3---3-3-3---6---6-6-6---6-6-6---8---8-8-8---8-8-8
6.-----------------------------------------6---6-6-6---6-6-6



1.----------------------------------------------------------
2.----------------------------------------------------------
3.----------------------------------------------------------
4.---------------------5---5-5-5---5-5-5---8---8-8-8---8-8-8
5.-3---3-3-3---3-3-3---3---3-3-3---3-3-3---6---6-6-6---6-6-6
6.-1---1-1-1---1-1-1----------------------------------------



1.----------------------------------------------------------
2.----------------------------------------------------------
3.----------------------------------------------------------
4.-----------------------------------------5---5-5-5---5-5-5
5.-6---6-6-6---6-6-6---3---3-3-3---3-3-3---3---3-3-3---3-3-3
6.-4---4-4-4---4-4-4---1---1-1-1---1-1-1--------------------


1.----------------------------------------------------------
2.----------------------------------------------------------
3.----------------------------------------------------------
4.-3---3-3-3---3-3-3-----------------------3---3-3-3---3-3-3
5.-1---1-1-1---1-1-1---6---6-6-6---6-6-6---1---1-1-1---1-1-1
6.---------------------4---4-4-4---4-4-4--------------------



1.----------------------------------------------------------
2.----------------------------------------------------------
3.----------------------------------------------------------
4.----------------------------------------------------------
5.-3---3-3-3---3-3-3---3---3-3-3---3-3-3---6---6-6-6---6-6-6
6.-1---1-1-1---1-1-1---1---1-1-1---1-1-1---4---4-4-4---4-4-4



1.----------------------------------------------------------
2.----------------------------------------------------------
3.----------------------------------------------------------
4.-5---5-5-5---5-5-5---3---3-3-3---3-3-3--------------------
5.-3---3-3-3---3-3-3---1---1-1-1---1-1-1---3---3-3-3---3-3-3
6.-----------------------------------------1---1-1-1---1-1-1


1.-------------------------------------------------------------
2.-------------------------------------------------------------
3.-------------------------------------------------------------
4.---5---5-5-5---5-5-5---8---8-8-8---8-8-8---------------------
5.---3---3-3-3---3-3-3---6---6-6-6---6-6-6---6---6-6-6---6-6-6-
6.-------------------------------------------4---4-4-4---4-4-4-


1.----------------------------------------------------------
2.----------------------------------------------------------
3.----------------------------------------------------------
4.---------------------5---5-5-5---5-5-5---3---3-3-3---3-3-3
5.-3---3-3-3---3-3-3---3---3-3-3---3-3-3---1---1-1-1---1-1-1
6.-1---1-1-1---1-1-1----------------------------------------



1.----------------------------------------------------------
2.----------------------------------------------------------
3.----------------------------------------------------------
4.---------------------3---3-3-3---3-3-3--------------------
5.-6---6-6-6---6-6-6---1---1-1-1---1-1-1---3---3-3-3---3-3-3
6.-4---4-4-4---4-4-4-----------------------1---1-1-1---1-1-1



1.-------------------------------------------
2.-------------------------------------------
3.-------------------------------------------
4.-----------------------5---5-5-5---5-5-5---
5.—--3---3-3-3---3-3-3---3---3-3-3---3-3-3---
6.---1---1-1-1---1-1-1-----------------------



(1:11)

1.------------------------------------------------------
2.------------------------------------------------------
3.-----------------------3------------5-7/8---8-10/12---
4.-------------3-5---/5----3----------------------------
5.---3-5-6---6----------------6-5-3---------------------
6.------------------------------------------------------



1.------------------------------------------------------
2.------------------------13-15-16-15-------------------
3.---12-15/17---19-15-17---------------17-15-13---------
4.----------------------------------------------17-15---
5.------------------------------------------------------
6.------------------------------------------------------



1.-------------------------------------------------T---
2.--------------------------------------------T---20---
3.-------------------------------------------17--------
4.---13-17-15---/13-12-10-----8-7-5-----T--------------
5.----------------------------6-5-3-----10-------------
6.-----------------------------------------------------



(2:03)

1.-------------------------------------------------------
2.-------------------------------------------------------
3.-----------------12-14-12-14-12------------------------
4.---/-12-14-15-15----------------15-14-12---12-14-15-15-
5.-------------------------------------------------------
6.-------------------------------------------------------



1.-------------------------------------------------------
2.----------13-15-15h13----13----------------------------
3.-12-14-14-------------14----14h12-14h12-----12-12------
4.-----------------------------------------15-------15---
5.-------------------------------------------------------
6.--------------------------------------------------. . .

No hay comentarios:

Publicar un comentario