.

banners

Tabs fácil de...Sleeping dogs. Zakk Wylde.

  Ya está aquí el primer single adelanto de lo que será el nuevo trabajo de Zakk Wylde, una continuación al menos por el título "Book of shadows II" de lo que fuera su primer disco en solitario.
  En TabsFácil queremos ofrecerte un pequeño adelanto en forma como no, de tablatura fácil para que vayas abriendo boca.
  Un saludo.
  TabsFácil.




Sleeping dogs. Zakk Wylde.

   
1.----------------------|
2.----------------------|
3.----------------------|
4.-----3------3---------|
5.-3h5----3h5----3-/1---|
6.--------------------5-|


  (0:13)

1.------------------------------|
2.------------------------------|
3.------------------7/8\7-------|
4.-10-/12--10-8------------10-8-|
5.--------------10--------------|
6.------------------------------|

1.-----------------|
2.-----------------|
3.-----------------|
4.-10(12)(10)h8----|
5.--------------10-|
6.-----------------|


No hay comentarios:

Publicar un comentario en la entrada