.

banners

Tabs fácil de...Empire of lies. Impellitteri.

  "Venom" se llama el último trabajo de este gran guitarrista, Chris Impellitteri, del cuál os quiero dejar varios momentos en tablatura como el inicio del tema "Empire of líes."
  Espero que os guste y disfruteís como siempre de este guitar hero.
  Un saludo.
  TabsFácil.






Empire of lies. Impellitteri.

1.---------------------------------------
2.---------------------------------------
3.---------------------------------------
4.-----5-6-3-----------------------------
5.---6-----------3-3-----4-4-----1-1-----
6.-----------1-1-----1-1-----1-1-----1-1-


1.---------------------------------------

2.---------------------------------------
3.---------------------------------------
4.----------3-----1-3--------------------
5.--3-3-------3-4------------3-3-----4-4-
6.------1-1-----------1--1-1-----1-1-----


1.--------------------------------------3

2.----------------------------------4-6--
3.--------------5-3-----------3-5-6------
4.------------------6-5-3-5-6------------
5.------1-1------------------------------
6.--1-1-----1-1--------------------------


1.--4------------------------------------

2.----6----------------------------------
3.---------------------------------------
4.---------------------------------------
5.------------3-3-----4-4-----1-1-----3-3
6.--------1-1-----1-1-----1-1-----1-1----


1.---------------------------------------

2.---------------------------------------
3.---------------------------------------
4.------3-----1-3------------------------
5.--------3-4------------3-3-----4-4-----
6.--1-1-----------1--1-1-----1-1-----1-1-

1.---------------------------

2.---------------------------
3.---------------------------
4.---------------------------
5.--1-1-----3-2-1---2-1----3-
6.------1-1-------4-----4--1-...

No hay comentarios:

Publicar un comentario