.

banners

Tabs fácil de...Cups of eternity. Opeth.

  Os propongo en tablaturas fáciles un riff muy interesante para practicar, tanto los iniciados en el mundo de la guitarra como los no tanto. 
  Por cierto, un tema a mi gusto muy bueno. 
 Un saludo. 
 TabsFácil.







Cusp of eternity. Opeth.

1.-----------------------------------------------
2.-----------------------------------------------
3.-----------------------------------------------
4.-----------------------------------------------
5------------------------------------------------
6.-3-3-3---3-4-1---3-3-3----3-4-1---3-3-3---3-4-1. . .

(1:03)
1.-------------------------------
2.-------------------------------
3.-------------------------------
4.-------------------------5-4---
5.---5-6---3-6-6---3-6-5---3-2---
6.---3-4---1-4-4---1-4-3---------. . . 



No hay comentarios:

Publicar un comentario en la entrada