.

banners

Tabs fácil de... We own the night. Impellitteri.

  Tema espectacular este "We own the night" perteneciente al último trabajo de Impellitteri, del que os quiero dejar un momento en tablatura del riff principal del tema que espero, como siempre que os guste y disfrutéis. Impellitteri en tablaturas fáciles.
  Un saludo.
   TabsFácil.












We own the night. Impellitteri.

1.---------------------------------------
2.---------------------------------------
3.-------------------/6-4--4--/6-4-------
4.---------------------------------------
5.------------------------------------1-2
6.---4-4-4-4-7--4-4-----------------2----

1.---------------------------------------
2.---------------------------------------
3.-------------------/6-4----------------
4.---------------------------------------
5.------------------------------4-----4-6
6.---4-4-4-4-7--4-4-------4-6-7---6-7----

1.--------------------
2.--------------------
3.----------------4---
4.----------4-6-8---6-
5.----4-6-7-----------
6.--7---------------...

No hay comentarios:

Publicar un comentario en la entrada