.

banners

Tabs fácil de... One less cross to bear. Joe Bonamassa.

  Inmerso estoy en preparar unas tablaturas fáciles del último trabajo de este grande de la guitarra, mientras tanto os dejo un riff en tabs fácil del trabajo que presentara en Octubre pasado.






 Un disco en directo, grabado en el Radio City Music Hall de Nueva York durante su gira americana.
  "One less cross to bear" fue el tema elegido como adelanto para promocionar el disco y es por eso, que quiero aprovechar y dejaros un momento en tablatura del tema, en concreto el riff inicial que, como siempre, espero que os guste y disfrutéis.
   Un saludo.
   TabsFácil.




One less cross to bear. Joe Bonamassa.



1.-------------------------------------
2.-------------------------------------
3.-------------------------------4-2---
4.---------4h2---------------4h2-----4-
5.-----2h4---------------2h4-----------
6.--2----------2--0h2-2----------------

1.---------------------------------

2.---------------------------------
3.---------------------------4-2---
4.--------4h2--4---------4h2-----2-
5.----2h4--------2---2h4-----------
6.--2--------------2---------------...



No hay comentarios:

Publicar un comentario en la entrada