.

banners

Tabs fácil de... Medusalem. Moonspell.

  Otro de los cortes pertenecientes al último trabajo de Moonspell. Banda portuguesa que no podía faltar en tablaturas fáciles.
  Un saludo.
  TabsFácil.












Medusalem. Moonspell.

1.----------------------------------
2.----------------------------------
3.-------5-4--2h4-4-2-2h4-4-2h4h2-2-
4.---2h5----------------------------
5.----------------------------------
6.----------------------------------

1.----------------------------------

2.----------------------------------
3.---4-4-2---2-------5-4-2h4-4-2-2h4
4.---------5-----2h5----------------
5.----------------------------------
6.----------------------------------

1.----------------------------------

2.----------------------------------
3.--4-2h4h2--2-4-4-2---2------5-4---
4.-------------------5----2h5-------
5.---------------------------------2
6.---------------------------------0

1.-----------------------------

2.-----------------------------
3.-----------------------------
4.-----------------0h2---------
5.---2-2-2-2-2-2-2-----2-2-2-2-
6.---0-0-0-0-0-0-0-----0-0-0-0-...

No hay comentarios:

Publicar un comentario