.

banners

Tabs fácil de... Feel my pain. Rage

   

  Vamos a aprender  a tocar la guitarra, de la mano de uno de los grandes, Victor Smolski y una  de sus Tablaturas fáciles. Vamos a darle un toque de espectacularidad a nuestros temas, a rizar el rizo, con tapping con las dos manos. Podemos incorporarlo a nuestro lenguaje musical, añadiendolo a nuestros solos, como intro de un tema, cambio de ritmo, etc,. Os dejo un riff del tema para que veáis como ya os dijera alguna vez ( no solo de quintas vive el heavy metal,) que existen cuartas, terceras... disminuidas, aumentadas, justas,... etc.
  Un saludo.

  TabsFácil.








Feel my pain. Rage

   -----armonicos naturales----(2 veces)
1.------------------------------
2.-10--------10---8------10-8---
3.-----9-10---------9-10--------
4.------------------------------
5.------------------------------
6.------------------------------

d=tapping mano derecha
i=tapping mano izquierda

---i-i---d-i--i----d---i-i---d---i-i----d---i-i---d
1.----------------------------------------------------
2.----------------------------------------------------
3.----------------------------------------------------
4.---7---15----7---15----7---14-----7---14---7---12/14
5.-5--------5----------5---------5---------5----------
6.----------------------------------------------------

---i-i---d---i-i----d---i-i---d---i-i----d---i-i---d
1.------------------------------------------------------
2.------------------------------------------------------
3.------------------------------------------------------
4.------------------------------------------------------
5.---8---17----8---17-----8---15-----8---15----8---15/17
6.-6---------6---------6----------6----------6----------



---i-i---d-i---i---d---i-i---d---i-i---d---i-i---d
1.-------------------------------------------------
2.-------------------------------------------------
3.-------------------------------------------------
4.-------------------------------------------------
5.---5---15----5---15---5---13---5---13---5---13/15
6.-3---------3--------3--------3--------3----------

---i-i---d--i-i----d--i-i--d--i-i---d--i-i---d
1.------------------------------------------------
2.------------------------------------------------
3.------------------------------------------------
4.---5---10---5---12---5---15---5---14---5---10/12
5.-3--------3--------3--------3--------3----------
6.------------------------------------------------

(Repite 3 veces)

---i-i---d--i--i---d--i-i----d--i--i----d-i-i---d
1.----------------------------------------------------
2.----------------------------------------------------
3.----------------------------------------------------
4.---7---15----7---15----7---14-----7---14---7---12/14
5.-5--------5----------5---------5---------5----------
6.----------------------------------------------------



---i-i---d--i--i---d--i--i----d---i-i----d---i-i---d
1.------------------------------------------------------
2.------------------------------------------------------
3.------------------------------------------------------
4.------------------------------------------------------
5.---8---17----8---17-----8---15-----8---15----8---15/17
6.-6---------6---------6----------6----------6----------



---i-i---d--i--i---d--i-i---d--i-i----d-i-i---d
1.-------------------------------------------------
2.-------------------------------------------------
3.-------------------------------------------------
4.-------------------------------------------------
5.---5---15----5---15---5---13---5---13---5---13/15
6.-3---------3--------3--------3--------3----------

---i-i---d--i--i--d--i-i---d-i-i----d-i-i---d-i—i----d
1.------------------------------------------------------
2.------------------------------------------------------
3.------------------------------------------------------
4.---5---10---5---12---5---15---5---14---5---12---5---10
5.-3--------3--------3--------3--------3--------3-------
6.------------------------------------------------------


1.------------------------------------------------
2.------------------------------------------------
3.---------------------------------2-2---2-3-3---3
4.---7---7-8---5---0-0-3---3-3-2---0-0---0-0-0---0
5.---5---5-5---5----------------------------------
6.------------------------------------------------

1.-------------------------------------------------
2.-------------------------------------------------
3.-------------------------2-2---2-3-3---3---5-5---
4.---5-5---0-0-3---3-3-2---0-0---0-0-0---0---3-3-2-
5.---5-5-----------------------------------------0-
6.-------------------------------------------------

---armonicos artificia.--
1.--------------------|-------------------------
2.---------6-5---5----|-------------------------
3.-----5-7-----5---7--|---2-2---2-3-3---3-------
4.---5----------------|---0-0---0-0-0---0---5-5-
5.--------------------|---------------------5-5-
6.--------------------|-------------------------

1.--------------------------------------------
2.--------------------------------------------
3.-------------------2-2---2-3-3---3---5-5----
4.---0-0-3---3-3-2---0-0---0-0-0---0---3-3---2
5.-------------------------------------------0
6.--------------------------------------------

1.---------------------------------------------------
2.---------------------------------------------------
3.------------------------------------9-10---10-10/12
4.---2---2-------7---7-------------12----------------
5.---0---0---5---5---5---7------12-------------------
6.-----------3-----------5---------------------------

1.--------------------------------------------------
2.---------------8----------------------------------
3.---9---------9---9-7----9-9/10---7----------------
4.---------12----------10----------------12---10-12-
5.------12----------------------------12------------
6.--------------------------------------------------

No hay comentarios:

Publicar un comentario