.

banners

Tabs fácil de... Delusions of saviour. Slayer.





  Después de unos seis años sin saber nada de ellos, a nivel discográfico por supuesto, y después de pérdidas trágicas y disputas, hace unos meses salía a la luz "Repentless" el nuevo y esperado trabajo de Slayer.
  Dejando atrás toda la controversia generada por los cambios de formación, búsqueda de productor, etc, etc, el disco ha sido aclamado por la crítica y por sus fans. De tal manera que hasta una página tan pequeña como tablaturas fáciles lo está notando. Es por eso que hoy os quiero dejar unos momentos, los del inicio del tema y del disco de "Delusions of Saviour".
   Espero que os guste y disfrutéis. 

   Un saludo.
   Tabs Fácil.






Delusions of saviour. Slayer.


1.------------------------------------
2.------------------------------------
3.------------------------------------
4.-------------4---------------------4
5.--6--4-6-7-6---7-6-7-6--6--4-6-7-6--
6.------------------------------------


1.------------------------------------
2.------------------------------------
3.------------------------------------
4.----------------------4-------------
5.--7-6-7-6--6--4-6-7-6---7-6-7-6--6--
6.------------------------------------


1.----------------
2.----------------
3.----------------
4.----------4-----
5.--4-6-7-6---7-7-
6.----------------...

(0:22)
1.-------------------------------
2.-------------------------------
3.-------------------------------
4.-------------------------------
5.-//-1-1-1--1--1-1-1--1--2-1-1--
6.-------------------------------


1.----------------------------
2.----------------------------
3.----------------------------
4.----------------------------
5.--1-1-1--1--1-1-1--1--4-2-2-
6.----------------------------

1.-----------------------------
2.-----------------------------
3.-----------------------------
4.-----------------------------
5.--1-1-1--1--1-1-1--1--2-1-1--
6.-----------------------------

1.--------------------------
2.--------------------------
3.--------------------------
4.--------------------------
5.--1-1-1--1--1-1---4--2--1-
6.--------------------------...

(1:20)
1.-------------------------------
2.-------------------------------
3.----------4------------------4-
4.--4-6-7-6---7-6-7-6--4-6-7-6---
5.-------------------------------
6.-------------------------------


1.-------------------------------
2.-------------------------------
3.-------------------4-----------
4.--7-6-7-6--4-6-7-6---7-6-7-6---
5.-------------------------------
6.-------------------------------


1.----------------
2.----------------
3.----------4-----
4.--4-6-7-6---7-7-
5.----------------
6.----------------...

(1:31)
1.-------------------------------
2.----------7------------------7-
3.--6-8-9-8---9-8-9-8--6-8-9-8---
4.-------------------------------
5.-------------------------------
6.-------------------------------


1.------------------------------
2.-------------------7----------
3.--9-8-9-8--6-8-9-8---9-8-9-8--
4.------------------------------
5.------------------------------
6.------------------------------


1.-------------------------
2.-------------------------
3.--6-8-9-8----------------
4.----------11--9--8--9--8-
5.-----------9--7--6--7--6-
6.-------------------------...

No hay comentarios:

Publicar un comentario