.

banners

Tablatura fácil de...Venom. Impellitteri.

  La de años que llevo escuchando el nombre de Impellitteri sonando por emisoras, revistas y páginas especializadas, pero años.
  Aunque también es verdad que la banda ha pasado por sequías o etapas en las que no ha sacado disco, de hecho en los últimos 13 años juraría que ha sacado unos 3 discos.
   El 17 de Abril del año pasado nos presentaban "Venom" y unos meses antes el single de nombre homónimo, del que me he atrevido a interpretar en modo tablaturas fáciles uno de los riffs del tema que, sin pretender ser ostentoso, espero que os guste y lo disfrutéis.
    Un saludo.
    Tabs Fácil.





Venom. Impellitteri.



1.---------------------------------------
2.------------------------------8--------
3.---------------5-8-5-4-7-4------10-8-7-
4.---------------------------------------
5.---3-3-3-3-3---------------------------
6.---------------------------------------

1.----------------------------------------

2.----------------------------------------
3.----8-7---------------------------------
4.-10-----10-8-6----8-6-------------------
5.---------------10-----10-8-6----6h8h10--
6.-----------------------------10--------7  ...


No hay comentarios:

Publicar un comentario en la entrada