.

banners

Tablatura fácil de...Una de piratas. Zenobia.

"Una de piratas" Otro de los temas que forman parte de "Supernova" trabajo de Zenobia  en el que cuentan con la inestimable colaboración de Oscar Sancho de Lujuria.
  Aquí os dejo unos momentos en tablatura fácil del tema que espero que os gusten y los disfrutéis.
  Un saludo.
  TabsFácil.



Una de piratas. Zenobia.

(Guitarra 1)
1.--------------------------------------
2.--------------------------------------
3.--------------------------------------
4.---7----------------------------------
5.---5--5-5--5-5--5-5--5-5--5-5--5-5--5-
6.--------------------------------------

(Guitarra 2)
1.--------------------------------------------
2.--------------------------------------------
3.-----14----12----10----9----10---9-10-12----
4.--12----12----12----12---12---12---------12-
5.--------------------------------------------
6.--------------------------------------------

(Guitarra 1)
1.--------------------------------------
2.--------------------------------------
3.--------------------------------------
4.---3----------------------------------
5.---1--1-1--1-1--1-1--1-1--1-1--1-1--1-
6.--------------------------------------

(Guitarra 2)
1.--------------------------------------------
2.--------------------------------------------
3.-----14----12----10----9----10---9-10-12----
4.--12----12----12----12---12---12---------12-
5.--------------------------------------------
6.--------------------------------------------

(Guitarra 1)
1.--------------------------------------
2.--------------------------------------
3.--------------------------------------
4.--------------------------------------
5.---3----------------------------------
6.---1--1-1--1-1--1-1--1-1--1-1--1-1--1-

(Guitarra 2)
1.--------------------------------------------
2.--------------------------------------------
3.-----14----12----10----9----10---9-10-12----
4.--12----12----12----12---12---12---------12-
5.--------------------------------------------
6.--------------------------------------------

(Guitarra 1)
1.-----------------------------------
2.-----------------------------------
3.-----------------------------------
4.---5--------------6--------------7-
5.---3--3-3--3-3--3-4--4-4--4-4--4-5-
6.-----------------------------------

(Guitarra 2)
1.-----------------------------------------------
2.-----------------------------------------------
3.--------------------------9--9-9-9-9-9-9-9-9---
4.--12-12-12-12-12-12-12-12--------------------12
5.-----------------------------------------------
6.-----------------------------------------------

(Guitarra 1)
1.--------------------------------------
2.--------------------------------------
3.--------------------------------------
4.---7----------------------------------
5.---5--5-5--5-5--5-5--5-5--5-5--5-5--5-
6.--------------------------------------

(Guitarra 2)
1.--------------------------------------------
2.--------------------------------------------
3.-----14----12----10----9----10---9-10-12----
4.--12----12----12----12---12---12---------12-
5.--------------------------------------------
6.--------------------------------------------

(Guitarra 1)
1.--------------------------------------
2.--------------------------------------
3.--------------------------------------
4.---3----------------------------------
5.---1--1-1--1-1--1-1--1-1--1-1--1-1--1-
6.--------------------------------------

(Guitarra 2)
1.--------------------------------------------
2.--------------------------------------------
3.-----14----12----10----9----10---9-10-12----
4.--12----12----12----12---12---12---------12-
5.--------------------------------------------
6.--------------------------------------------

(Guitarra 1)
1.--------------------------------------
2.--------------------------------------
3.--------------------------------------
4.--------------------------------------
5.---3----------------------------------
6.---1--1-1--1-1--1-1--1-1--1-1--1-1--1-

(Guitarra 2)
1.--------------------------------------------
2.--------------------------------------------
3.-----14----12----10----9----10---9-10-12----
4.--12----12----12----12---12---12---------12-
5.--------------------------------------------
6.--------------------------------------------

(Guitarra 1)
1.-----------------------------------
2.-----------------------------------
3.-----------------------------------
4.---5--------------6--------------7-
5.---3--3-3--3-3--3-4--4-4--4-4--4-5-
6.-----------------------------------

(Guitarra 2)
1.--------------------------------------------
2.--------------------------------------------
3.--------------------------9--9-9-9-9-9-9-9-9
4.--12-12-12-12-12-12-12-12-------------------
5.--------------------------------------------
6.--------------------------------------------

(Guitarra 2)
1.--------
2.--------
3.-----10-
4.--12----
5.--------
6.--------

(Guitarra 1)  "Yo soy el pirata..."
1.--------------
2.--------------
3.--------------
4.---3---5---7--
5.---1---3---5--
6.--------------...


No hay comentarios:

Publicar un comentario