.

banners

Tablatura facil de...Tiberius. Smashing Pumpkies.

   No es uno de esos grupos que haya escuchado mucho, todo lo contrario pero si lo conozco y a su guitarrista Billy Corgan de que en la época que yo era asiduo a las revistas especializadas para guitarra, no dejaban de salir casi en todos los números con entrevistas, repaso a su técnica, tablaturas, etc., y eso sólo podía ser por dos cosas, o le gustaba mucho al director, redactores o este guitarrista ya estaba considerado en aquella época como uno de los mejores...
   El caso es que aprovechando el adelanto de su nuevo trabajo, aquí os dejo unos momentos en tablatura fácil que espero que disfrutéis y aprovechéis como yo hiciera en su época.
   Un saludo.
   TabsFácil.





Tiberius. The smashing pumpkins.



1.----------------------------------------------
2.----------------------------------------------
3.----------------------------------------------
4.--------------------------7-7-7--7-7-7--5-5-5-
5.---1-1--1-1-1--1--5-5-5---5-5-5--5-5-5--3-3-3-
6.---1-1--1-1-1--1--3-3-3---------------------...

(1:03)
1.-------------------------------------------------
2.--8(10)-11-10---------------8(10)-11-10----------
3.--------------10-12-12(14)--------------9-9(10)--
4.-----------------------------------------------10
5.-------------------------------------------------
6.-------------------------------------------------

(2:37)
1.--------------------------------------------------
2.------------------------------------------13-/15--
3.--14-12-10--14-12-10---14-12-10--14-12-10-------14
4.--------------------12----------------------------
5.--------------------------------------------------
6.--------------------------------------------------

No hay comentarios:

Publicar un comentario