.

banners

Tablatura fácil de...The old man. Kadavar.

  "The old man" fue el tema elegido por la banda Kadavar para presentar su último álbum que llevaba por nombre "Berlín."
   También lo he elegido para dejaros unos momentos en tablatura del tema que, espero, como siempre, que os guste y disfrutéis.
  Un slaudo.
  TabsFácil.










The old  man. Kadavar.


1.-------5-----------------------5-
2.---7h8----7h8h7-5h7h5-5-5--7h8---
3.---------------------------------
4.---------------------------------
5.---------------------------------
6.---------------------------------

1.-----------------------------5---
2.--7h8h7--5h7h5--3h5h3-3--7h8---7h
3.---------------------------------
4.---------------------------------
5.---------------------------------
6.---------------------------------


1.---5------------------------------
2.--8--7h8h7--5h7h5--5-5------------
3.----------------------------------
4.------------------------9-7-5-4-/2
5.----------------------------------
6.----------------------------------

1.-------5-----------------------5-
2.---7h8----7h8h7-5h7h5-5-5--7h8---
3.---------------------------------
4.---------------------------------
5.---------------------------------
6.---------------------------------

1.-----------------------------5---
2.--7h8h7--5h7h5--3h5h3-3--7h8---7h
3.---------------------------------
4.---------------------------------
5.---------------------------------
6.---------------------------------


1.---5------------------------------
2.--8--7h8h7--5h7h5--5-5------------
3.----------------------------------
4.------------------------9--7--5--4
5.----------------------------------
6.----------------------------------


1.----------------------------------
2.----------------------------------
3.----------------------------------
4.--2h0h2--0-------------9-9--7--9-9
5.-----------3--2--------7-7--5--7-7
6.----------------3-2-0----------...

No hay comentarios:

Publicar un comentario en la entrada