.

banners

Tablatura fácil de...The last of us. Moonspell.

  En Marzo del año pasado lanzaban al mercado los portugueses Moonspell su disco "Extinct" un disco repleto de riffs de los que nos vamos a aprovechar en tabs fáciles para aprender a tocar y disvertirnos al estilo de la banda lusa.
  Un saludo.
  TabsFácil.








The last of us. Moonspell.


(intro) (Acompañamiento Sol  Re#  Fa)

1.-------------------------------------
2.--------13-13-13/15-15--15--15-15-15-
3.--12-12------------------------------
4.-------------------------------------
5.-------------------------------------
6.-------------------------------------

1.-------------------------------------

2.--------13-13-10-10-10/11-11-11-10---
3.--12-12----------------------------12
4.-------------------------------------
5.-------------------------------------
6.-------------------------------------

1.----------------------------------

2.-----13-13-13/15-15--15--15-15-15-
3.--12------------------------------
4.----------------------------------
5.----------------------------------
6.----------------------------------

1.-------------------------------------

2.--------13-13-10-10-10/11-11-11-10---
3.--12-12----------------------------12
4.-------------------------------------
5.-------------------------------------
6.-------------------------------------

1.----------------------------------

2.-----13-13-13/15-15--15--15-15-15-
3.--12------------------------------
4.----------------------------------
5.----------------------------------
6.----------------------------------

1.--------------------------------

2.--------13-13-10-10-10/11-11-11-
3.--12-12-------------------------
4.--------------------------------
5.--------------------------------
6.--------------------------------

1.----------------

2.---10h11h10h11h-
3.----------------
4.----------------
5.----------------
6.-------------...(La#  Sol)


(2:34)

1.------6---6h5h6h5h6h5h6h5------6---
2.--6h8---8------------------6h8---8-
3.-----------------------------------
4.-----------------------------------
5.-----------------------------------
6.-----------------------------------

1.--6h5h6h5h6h5h6h5------8/-5-8h58h58h58h5-

2.-------------------6h8-------------------
3.-----------------------------------------
4.-----------------------------------------
5.-----------------------------------------
6.-----------------------------------------

1.------10----10----10----10----10/-13--10/-8

2.--6h8----10----10----10----10--------------
3.-------------------------------------------
4.-------------------------------------------
5.-------------------------------------------
6.----------------------------------------...

No hay comentarios:

Publicar un comentario en la entrada