.

banners

Tablatura fácil de...Saint Patrick's day. Civil war

   Aprovechando la reciente celebración del día de San Patricio, en Tablaturas fáciles vamos a aprender a tocar la guitarra y a divertirnos con un tema de Civil War y su álbum "The killers angels" que precisamente se llama " Saint Patrick's day".
   Que lo disfrutéis.
   Un saludo.
   TabsFácil.



Saint Patrick's day. Civil war.

Guitar 2.

e|-----------------------------------------------------------------|
B|-----------------------------------------------------------------|
G|-9-----9---11-9-------------9------11-12--7-----7---9-7---------7|
D|---9-9---9-----12-9-------9---9-12----------7-7---7-----9-7-7-9--|
A|--------------------12-10----------------------------------------|
E|-----------------------------------------------------------------|


Guitar 1.

e|-------------------------------------------------------------|
B|-------------------------------------------------------------|
G|-------------------------------------------------------------|
D|-------------------------------------------7-7---------------|
A|-2-2----------------------2-2--------5-----5-5---------------|
E|-0-0----------------------0-0--------3-----------------------|

Guitar 2.

e|-5---5-5---------8-8---8-7----7-7---7-5-----5-5---5----------|
B|---------8-7-5-------------10-----------8-----------8-7-5----|
G|-------------------------------------------------------------|
D|-------------------------------------------------------------|
A|-------------------------------------------------------------|
E|-------------------------------------------------------------|


Guitar 1.

e|-------------------------------------------------------------|
B|-------------------------------------------------------------|
G|-------------------------------------------------------------|
D|-----------------5-5----------4-4-----------2-2--------------|
A|-7-------2-------3-3----------2-2-----------0-0----------2---|
E|-5-------0-----------------------------------------------0---|


Guitar2.

e|------14---17-15----15-14----------------------------|
B|-/12-------------17-------16-17----------------------|
G|-----------------------------------------------------|
D|-----------------------------------------------------|
A|-----------------------------------------------------|
E|-----------------------------------------------------|


Guitar 1.

e|-----------------------------------------------------|
B|-----------------------------------------------------|
G|-----------------------------------------------------|
D|-4---------------------------------------------------|
A|-2----------------2----------------------------------|
E|------------------0----------------------------------|

No hay comentarios:

Publicar un comentario