.

banners

Tablatura fácil de...Running out of time. Toto.

  No podían faltar en Tabs fácil, Toto, y aprovechando que su último trabajo me ha gustado mucho aunque  tengo que reconocer que tengo debilidad por este riff que da comienzo al tema "Running out of time"  una genialidad de Steve Lukather.
     Es por eso que os quiero dejar mi interpretación en tablatura fácil del riff mencionado, esperando siempre que sea de vuestro agrado y que lo utilicéis para practicar con la guitarra o para sacar vuestra propia versión de la tablatura.
    Un saludo.
    TabsFácil.



Running out of time. Toto.

1.-------------7--/6-4---------------
2.----------------------9-7-5--------
3.--------6-8-----------------11-9-7-
4.---/8-9----------------------------
5.-----------------------------------
6.-----------------------------------


1.-------------------------------------
2.-------------------------------------
3.-------------------------------------
4.--11-9-7---------------5-------------
5.---------11-9-7--9-7-5----2h0-4h0-5-0
6.-------------------------------------


1.------------------------7--/6-4------
2.--------------------------------9-7-5
3.-------------------6-8---------------
4.--------------/8-9-------------------
5.--7-5-4------------------------------
6.--------5-3--------------------------

1.-------------------------------------
2.-------------------------------------
3.--11-9-7-----------------------------
4.---------11-9-7---------------5------
5.----------------11-9-7--9-7-5----2h0-
6.-------------------------------------

1.-------------
2.-------------
3.-------------
4.-------------
5.--4h0-5-0--7-
6.-------------...

No hay comentarios:

Publicar un comentario