.

banners

Tablatura fácil de...La Santa Compaña. Finisterra Ópera Rock.


www.tabsfacil.es
Tablaturas fáciles para guitarra.











La Santa Compaña. Finisterra ópera rock.

1.------------------------------------

2.------------------------------------
3.------------------------------------
4.-2----------------------2-----------
5.-0-0-2-3-2-0--0-2-3-2-0-0-0-2-3-2-0-
6.------------------------------------

1.------------------------------------

2.------------------------------------
3.------------------------------------
4.--5--7--2----------------------2----
5.--3--5--0-0-2-3-2-0--0-2-3-2-0-0-0-2
6.------------------------------------

1.----------------

2.----------------
3.----------------
4.--------5-----2-
5.-3-2-0--3--5--0-
6.-----------3----...

  "Cuando al atardecer...

1.-----------------------
2.-----------------------
3.-----------------------
4.--------5------------2-
5.--5--7--3--5--7--0-0-0-
6.--3--5-----3--5--------...

   Algo se empieza a mover....

1.-----------------------------------
2.-----------------------------------
3.-----------------------------------
4.-----------------------------------
5.-3-----3--5-----5--7-----7------7--
6.-1-1-1-1--3-3-3-3--5-5-5-5--5-5-5--

1.-----------------------------------

2.-----------------------------------
3.-----------------------------------
4.-----------------------------------
5.--0-3-2-0---3-----3--5-----5--7----
6.----------3-1-1-1-1--3-3-3-3--5-5-5

1.-----------------------------------

2.-----------------------------------
3.---------------------------9-7---5-
4.-------------------------7-----9---
5.--7------7------7-7-7-7------------
6.--5--5-5-5--5-5-5-5-5-5----------...

  (1:12) Ohh...Ohhh...

1.-----------------------------------
2.-----------------------------------
3.-----------------------------------
4.--5-----2------------------------5-
5.--3--5--0--3-----3-3--5-----5-5--3-
6.-----3-----1-1-1-1-1--3-3-3-3-3----

1.-----------------------------------

2.-----------------------------------
3.-----------------------------------
4.------5------5------5-5------------
5.--3-3-3--3-3-3--3-3-3-3--5-----5---
6.-------------------------3-3-3-3--3

1.-----------------------------------

2.-----------------------------------
3.-----------------------------------
4.-----------------2-----2------2----
5.----5-------5-5--0-0-0-0--0-0-0--0-
6.--3-3---3-3-3-3--------------------

1.-----------------------------------

2.-----------------------------------
3.-----------------------------------
4.----2-2------------------------9---
5.--0-0-0--3-----3-3--5-----5-5--7-7-
6.---------1-1-1-1-1--3-3-3-3-3------

1.-----------------------------------

2.-----------------------------------
3.---------------------7h5h4---------
4.----9------9------9--------7h5h4---
5.--7-7--7-7-7--7-7-7--------------7-
6.-----------------------------------...

  (4:04)

1.---------------------------------
2.---------------------------------
3.---------------------------------
4.--2----------------------0h2-0h2-
5.--0-0-0-0-0-0-0-0-0-0-0----------
6.---------------------------------

1.---------------------------------

2.---------------------------------
3.---------------------------------
4.--5----------------------3h5-3h5-
5.--3-3-3-3-3-3-3-3-3-3-3----------
6.---------------------------------

1.---------------------------------

2.---------------------------------
3.---------------------------------
4.---------------------------------
5.--5----------------------3h5-3h5-
6.--3-3-3-3-3-3-3-3-3-3-3----------

1.---------------------------

2.---------------------------
3.---------------------------
4.--7----------5-----5--7--2-
5.--5-5-5-5-5--3--5--3--5--0-
6.----------------3----------...

No hay comentarios:

Publicar un comentario