.

banners

Tablatura fácil de...A costa da morte. Finisterra Ópera Rock.


www.tabsfacil.es
Tablaturas para guitarra.












A costa da morte. Finisterra ópera rock. Mägo de oz.


(2:35)

1.-17-15-14----------------------------

2.----------17-15-13-------------------
3.-------------------16-17-19-17-16----
4.----------------------------------19-
5.-------------------------------------
6.-------------------------------------

1.-------------------------------------

2.-----------------------------10-12---
3.-----------------------12-12-------12
4.-17-16-17-19-17-16-------------------
5.-------------------19----------------
6.-------------------------------------


1.-------------------------------------
2.----12-13-12--13-15-13-12--10--------
3.-14---------------------------12-12--
4.-------------------------------------
5.-------------------------------------
6.-------------------------------------


1.-------------------------------------
2.-10-12--------/13-12-10------------10
3.-------12-14------------12---12-12---
4.-------------------------------------
5.-------------------------------------
6.-------------------------------------


1.------------------------------------
2.-12-------12-13-12--13-15-13-12--10-
3.----12-14---------------------------
4.------------------------------------
5.------------------------------------
6.------------------------------------


1.------------------------------------
2.-------10-12-------/13-12-10-----15-
3.-12-12-------12-14-----------12-----
4.------------------------------------
5.------------------------------------
6.------------------------------------


1.------------------------------------
2.-15-15-15-15-15---------------------
3.----------------12-12-12-12-12-12---
4.------------------------------------
5.------------------------------------
6.------------------------------------


1.-------------------------------------
2.-10-12-13-12-10----10-12-13-12-10----
3.----------------12----------------12-
4.-------------------------------------
5.-------------------------------------
6.-------------------------------------

1.------------------------------------

2.-15-15-15-15-15---------------------
3.----------------12-12-12-12-12-12---
4.------------------------------------
5.------------------------------------
6.------------------------------------


1.--------------
2.-----12-13-12-
3.-/14----------
4.--------------
5.--------------
6.--------------


1.------------------------------------
2.-15-15-15-15-15---------------------
3.----------------12-12-12-12-12-12---
4.------------------------------------
5.------------------------------------
6.------------------------------------


1.-------------------------------------
2.-10-12-13-12-10----10-12-13-12-10----
3.----------------12----------------12-
4.-------------------------------------
5.-------------------------------------
6.-------------------------------------

1.------------------------------------

2.-15-15-15-15-15---------------------
3.----------------12-12-12-12-12-12---
4.------------------------------------
5.------------------------------------
6.------------------------------------


1.--------------
2.-----12-10----
3.-/14-------12-
4.--------------
5.--------------
6.--------------



No hay comentarios:

Publicar un comentario en la entrada