.

banners

Tablatura fácil de... You against you. Slayer.

  Demoledor, un buen adjetivo para calificar el riff que da forma al tema que es el último sencillo de la banda americana Slayer.
  Y en tabs fáciles tienes ese momento en tablatura para que puedas practicar y divertirte si es este estilo el que te gusta.
  Recuerda, en www.tabsfacil.es tienes todas las tablaturas fáciles de tus grupos preferidos.
  Un saludo.
   TabsFácil.
















You against you. Slayer.

1.-----------------------------------|
2.-----------------------------------|
3.-----------------------------------|
4.-----------------------------------|
5.-6-6--7-7--4-4--7-7-6--6-6-6-6-6-6-|
6.-----------------------------------|

1.-----------------------------------|
2.-----------------------------------|
3.-----------------------------------|
4.-----------------------------------|
5.-6-6--7-7--4-4--7-7-6--6-6-6-6-6-6-|
6.-----------------------------------|

1.----------------------------------|
2.----------------------------------|
3.----------------------------------|
4.---------------4-4----------------|
5.-6-6--7-7--4-4-----7-7--4-4--7-7-6
6.----------------------------------|...

No hay comentarios:

Publicar un comentario en la entrada