.

banners

Tablatura fácil de... When the stillness comes. Slayer.

 Slayer es sin duda una de las bandas más grandes que ha dado el metal, en concreto el thrash metal.  Más de 30 años de historia y sus once álbumes de estudio avalan a esta banda estadounidense de la que os quiero dejar un momento en tablaturas fáciles de uno de sus temas más recientes.
  "When the stillness comes".
  Un saludo.
      TabsFácil.



When the stillness comes. Slayer.

1.-----------------------------------
2.-----------------------------------
3.-----------------------------------
4.-----5-4-----5-4-5---5-4-----5-4-5-
5.---7-----7-6-------7-----7-6-------
6.-----------------------------------

1.-----------------------------------
2.-----------------------------------
3.-----------------------------------
4.----5-4-----5-4-5---5-4---5-4-5----
5.--7-----7-6-------7-----6-------6-7
6.-----------------------------------

1.-----------------------------------
2.-----------------------------------
3.-----------------------------------
4.--5-4-----5-4-5---5-4-----5-4-5---5
5.------7-6-------7-----7-6-------7--
6.-----------------------------------

1.-----------------------------------
2.-----------------------------------
3.-----------------------------------
4.--4-----5-4-5---5-4---5-4-5-----5-4
5.----7-6-------7-----6-------6-7----
6.-----------------------------------

1.-----------------------------------
2.-----------------------------------
3.-----------------------------------
4.------5-4-5---5-4-----5-4-5---5-4--
5.--7-6-------7-----7-6-------7-----7
6.-----------------------------------

1.-----------------------------------
2.-----------------------------------
3.-----------------------------------
4.----5-4-5---5-4---5-4-5-----5-4---5
5.--6-------7-----6-------6-7-----6--
6.-----------------------------------

1.-----------------------------------
2.------4----------------------------
3.--------3--------------------------
4.--4-5-------5-4---5-4-5-----5-4---5
5.----------7-----6-------6-7-----6--
6.-----------------------------------

           (0:44)
1.-----------------------------------
2.-----------------------------------
3.-----------------------------------
4.--4-5------------------------------
5.------6---6-7-6--5-6--9-9-9-9--6-7-
6.-----------------------------------

1.-----------------------------------
2.-----------------------------------
3.-----------------------------------
4.-----------------------------------
5.--6--5-6--9-9-8-8--6-7-6--5-6--9-9-
6.-----------------------------------

1.-----------------------------------
2.-----------------------------------
3.-----------------------------------
4.----------------------------8-9-8--
5.--9-9--6-7-6--5-6--9-9-8-8--6-7-6--
6.-----------------------------------

1.------------------------------------
2.------------------------------------
3.------------------------------------
4.--7-9-11-11-11-11--8-9-8--7-8--11-11
5.--5-6--9-9--9--9---6-7-6--5-6--9--9-
6.------------------------------------

1.-----------
2.-----------
3.-----------
4.--10-10--8-
5.--8--8---6-
6.---------...

No hay comentarios:

Publicar un comentario en la entrada